ISO-10303-21;
HEADER;
FILE_DESCRIPTION (( 'STEP AP214' ),
    '1' );
FILE_NAME ('Q063C.step',
    '2012-04-20T21:02:42',
    ( '' ),
    ( '' ),
    'SwSTEP 2.0',
    'SolidWorks 2012',
    '' );
FILE_SCHEMA (( 'AUTOMOTIVE_DESIGN' ));
ENDSEC;

DATA;
#1 = LENGTH_MEASURE_WITH_UNIT ( LENGTH_MEASURE( 0.02539999999999999900 ), #86 );
#2 = AXIS2_PLACEMENT_3D ( 'NONE', #67, #68, #69 ) ;
#3 = PRODUCT_DEFINITION_FORMATION_WITH_SPECIFIED_SOURCE ( 'ANY', '', #116, .NOT_KNOWN. ) ;
#4 = PRESENTATION_LAYER_ASSIGNMENT (  '', '', ( #168 ) ) ;
#5 = ORIENTED_EDGE ( 'NONE', *, *, #50, .T. ) ;
#6 = ORIENTED_EDGE ( 'NONE', *, *, #51, .T. ) ;
#7 = ORIENTED_EDGE ( 'NONE', *, *, #52, .T. ) ;
#8 = ORIENTED_EDGE ( 'NONE', *, *, #54, .F. ) ;
#9 = VERTEX_POINT ( 'NONE', #24 ) ;
#10 = VERTEX_POINT ( 'NONE', #25 ) ;
#11 = VERTEX_POINT ( 'NONE', #26 ) ;
#12 = VERTEX_POINT ( 'NONE', #27 ) ;
#13 = VERTEX_POINT ( 'NONE', #28 ) ;
#14 = VERTEX_POINT ( 'NONE', #29 ) ;
#15 = ORIENTED_EDGE ( 'NONE', *, *, #55, .T. ) ;
#16 = ORIENTED_EDGE ( 'NONE', *, *, #56, .F. ) ;
#17 = ORIENTED_EDGE ( 'NONE', *, *, #53, .T. ) ;
#18 = ORIENTED_EDGE ( 'NONE', *, *, #49, .T. ) ;
#19 = ORIENTED_EDGE ( 'NONE', *, *, #47, .T. ) ;
#20 = ORIENTED_EDGE ( 'NONE', *, *, #51, .F. ) ;
#21 = ORIENTED_EDGE ( 'NONE', *, *, #46, .F. ) ;
#22 = ORIENTED_EDGE ( 'NONE', *, *, #57, .F. ) ;
#23 = ORIENTED_EDGE ( 'NONE', *, *, #48, .T. ) ;
#24 = CARTESIAN_POINT ( 'NONE',  ( 0.0000000000000000000, 0.06250000000000000000, 0.0000000000000000000 ) ) ;
#25 = CARTESIAN_POINT ( 'NONE',  ( 0.3750000000000000600, 0.06250000000000000000, -1.530808498934192100E-017 ) ) ;
#26 = CARTESIAN_POINT ( 'NONE',  ( 0.3749999999999999400, 0.0000000000000000000, -0.3750000000000000600 ) ) ;
#27 = CARTESIAN_POINT ( 'NONE',  ( 0.3749999999999999400, 0.06250000000000000000, -0.3750000000000000600 ) ) ;
#28 = CARTESIAN_POINT ( 'NONE',  ( 0.0000000000000000000, 0.0000000000000000000, -0.3750000000000000600 ) ) ;
#29 = CARTESIAN_POINT ( 'NONE',  ( 0.0000000000000000000, 0.06250000000000000000, -0.3750000000000000600 ) ) ;
#30 = PLANE ( 'NONE',  #169 ) ;
#31 = CARTESIAN_POINT ( 'NONE',  ( 0.0000000000000000000, 0.06250000000000000000, 0.0000000000000000000 ) ) ;
#32 = DIRECTION ( 'NONE',  ( 0.0000000000000000000, -1.000000000000000000, -0.0000000000000000000 ) ) ;
#33 = DIRECTION ( 'NONE',  ( 0.0000000000000000000, 0.0000000000000000000, -1.000000000000000000 ) ) ;
#34 = LINE ( 'NONE', #35, #166 ) ;
#35 = CARTESIAN_POINT ( 'NONE',  ( 0.0000000000000000000, 0.0000000000000000000, 0.0000000000000000000 ) ) ;
#36 = DIRECTION ( 'NONE',  ( -0.0000000000000000000, -0.0000000000000000000, 1.000000000000000000 ) ) ;
#37 = PLANE ( 'NONE',  #149 ) ;
#38 = LINE ( 'NONE', #39, #165 ) ;
#39 = CARTESIAN_POINT ( 'NONE',  ( 0.0000000000000000000, 0.06250000000000000000, 0.0000000000000000000 ) ) ;
#40 = DIRECTION ( 'NONE',  ( -0.0000000000000000000, -0.0000000000000000000, 1.000000000000000000 ) ) ;
#41 = COLOUR_RGB ( '',0.5686274509803921400, 0.5686274509803921400, 0.5882352941176470800 ) ;
#42 = ADVANCED_FACE ( 'NONE', ( #163 ), #30, .F. ) ;
#43 = COLOUR_RGB ( '',0.5686274509803921400, 0.5686274509803921400, 0.5882352941176470800 ) ;
#44 = PRODUCT_DEFINITION ( 'UNKNOWN', '', #3, #136 ) ;
#45 = PRODUCT_RELATED_PRODUCT_CATEGORY ( 'part', '', ( #116 ) ) ;
#46 = EDGE_CURVE ( 'NONE', #13, #74, #34, .T. ) ;
#47 = EDGE_CURVE ( 'NONE', #14, #9, #38, .T. ) ;
#48 = EDGE_CURVE ( 'NONE', #10, #12, #176, .T. ) ;
#49 = EDGE_CURVE ( 'NONE', #14, #13, #179, .T. ) ;
#50 = EDGE_CURVE ( 'NONE', #11, #13, #182, .T. ) ;
#51 = EDGE_CURVE ( 'NONE', #74, #75, #185, .T. ) ;
#52 = EDGE_CURVE ( 'NONE', #10, #75, #188, .T. ) ;
#53 = EDGE_CURVE ( 'NONE', #9, #10, #191, .T. ) ;
#54 = EDGE_CURVE ( 'NONE', #12, #11, #194, .T. ) ;
#55 = EDGE_CURVE ( 'NONE', #12, #14, #197, .T. ) ;
#56 = EDGE_CURVE ( 'NONE', #9, #74, #200, .T. ) ;
#57 = EDGE_CURVE ( 'NONE', #75, #11, #203, .T. ) ;
#58 = ADVANCED_FACE ( 'NONE', ( #167 ), #37, .F. ) ;
#59 = ADVANCED_FACE ( 'NONE', ( #150 ), #209, .F. ) ;
#60 = ADVANCED_FACE ( 'NONE', ( #153 ), #91, .F. ) ;
#61 = ADVANCED_FACE ( 'NONE', ( #154 ), #95, .F. ) ;
#62 = ADVANCED_FACE ( 'NONE', ( #156 ), #99, .T. ) ;
#63 = MECHANICAL_DESIGN_GEOMETRIC_PRESENTATION_REPRESENTATION (  '', ( #168 ), #171 ) ;
#64 = VECTOR ( 'NONE', #187, 39.37007874015748100 ) ;
#65 =( GEOMETRIC_REPRESENTATION_CONTEXT ( 3 ) GLOBAL_UNCERTAINTY_ASSIGNED_CONTEXT ( ( #140 ) ) GLOBAL_UNIT_ASSIGNED_CONTEXT ( ( #112, #113, #114 ) ) REPRESENTATION_CONTEXT ( 'NONE', 'WORKASPACE' ) );
#66 = VECTOR ( 'NONE', #190, 39.37007874015748100 ) ;
#67 = CARTESIAN_POINT ( 'NONE',  ( 0.0000000000000000000, 0.0000000000000000000, 0.0000000000000000000 ) ) ;
#68 = DIRECTION ( 'NONE',  ( 0.0000000000000000000, 0.0000000000000000000, 1.000000000000000000 ) ) ;
#69 = DIRECTION ( 'NONE',  ( 1.000000000000000000, 0.0000000000000000000, 0.0000000000000000000 ) ) ;
#70 = SHAPE_DEFINITION_REPRESENTATION ( #137, #142 ) ;
#71 = APPLICATION_PROTOCOL_DEFINITION ( 'draft international standard', 'automotive_design', 1998, #172 ) ;
#72 = PRODUCT_CONTEXT ( 'NONE', #172, 'mechanical' ) ;
#73 = APPLICATION_PROTOCOL_DEFINITION ( 'draft international standard', 'automotive_design', 1998, #173 ) ;
#74 = VERTEX_POINT ( 'NONE', #103 ) ;
#75 = VERTEX_POINT ( 'NONE', #104 ) ;
#76 =( LENGTH_UNIT ( ) NAMED_UNIT ( * ) SI_UNIT ( $, .METRE. ) );
#77 =( CONVERSION_BASED_UNIT ( 'INCH', #161 ) LENGTH_UNIT ( ) NAMED_UNIT ( #118 ) );
#78 =( NAMED_UNIT ( * ) PLANE_ANGLE_UNIT ( ) SI_UNIT ( $, .RADIAN. ) );
#79 =( NAMED_UNIT ( * ) SI_UNIT ( $, .STERADIAN. ) SOLID_ANGLE_UNIT ( ) );
#80 = FILL_AREA_STYLE_COLOUR ( '', #43 ) ;
#81 = FILL_AREA_STYLE ('',( #80 ) ) ;
#82 = SURFACE_STYLE_FILL_AREA ( #81 ) ;
#83 = SURFACE_SIDE_STYLE ('',( #82 ) ) ;
#84 = SURFACE_STYLE_USAGE ( .BOTH. , #83 ) ;
#85 = PRESENTATION_STYLE_ASSIGNMENT (( #84 ) ) ;
#86 =( LENGTH_UNIT ( ) NAMED_UNIT ( * ) SI_UNIT ( $, .METRE. ) );
#87 =( CONVERSION_BASED_UNIT ( 'INCH', #1 ) LENGTH_UNIT ( ) NAMED_UNIT ( #115 ) );
#88 =( NAMED_UNIT ( * ) PLANE_ANGLE_UNIT ( ) SI_UNIT ( $, .RADIAN. ) );
#89 =( NAMED_UNIT ( * ) SI_UNIT ( $, .STERADIAN. ) SOLID_ANGLE_UNIT ( ) );
#90 = DIRECTION ( 'NONE',  ( 1.821231995776175500E-016, 0.0000000000000000000, 1.000000000000000000 ) ) ;
#91 = PLANE ( 'NONE',  #155 ) ;
#92 = CARTESIAN_POINT ( 'NONE',  ( 0.0000000000000000000, 0.06250000000000000000, -0.3750000000000000600 ) ) ;
#93 = DIRECTION ( 'NONE',  ( 0.0000000000000000000, 0.0000000000000000000, 1.000000000000000000 ) ) ;
#94 = DIRECTION ( 'NONE',  ( 1.000000000000000000, 0.0000000000000000000, -0.0000000000000000000 ) ) ;
#95 = PLANE ( 'NONE',  #157 ) ;
#96 = CARTESIAN_POINT ( 'NONE',  ( 0.0000000000000000000, 0.06250000000000000000, 0.0000000000000000000 ) ) ;
#97 = DIRECTION ( 'NONE',  ( 1.000000000000000000, -0.0000000000000000000, 0.0000000000000000000 ) ) ;
#98 = DIRECTION ( 'NONE',  ( 0.0000000000000000000, 0.0000000000000000000, -1.000000000000000000 ) ) ;
#99 = PLANE ( 'NONE',  #159 ) ;
#100 = CARTESIAN_POINT ( 'NONE',  ( 0.0000000000000000000, 0.0000000000000000000, 0.0000000000000000000 ) ) ;
#101 = DIRECTION ( 'NONE',  ( 0.0000000000000000000, -1.000000000000000000, -0.0000000000000000000 ) ) ;
#102 = DIRECTION ( 'NONE',  ( 0.0000000000000000000, 0.0000000000000000000, -1.000000000000000000 ) ) ;
#103 = CARTESIAN_POINT ( 'NONE',  ( 0.0000000000000000000, 0.0000000000000000000, 0.0000000000000000000 ) ) ;
#104 = CARTESIAN_POINT ( 'NONE',  ( 0.3750000000000000600, 0.0000000000000000000, -1.530808498934192100E-017 ) ) ;
#105 = FILL_AREA_STYLE_COLOUR ( '', #41 ) ;
#106 = FILL_AREA_STYLE ('',( #105 ) ) ;
#107 = SURFACE_STYLE_FILL_AREA ( #106 ) ;
#108 = SURFACE_SIDE_STYLE ('',( #107 ) ) ;
#109 = SURFACE_STYLE_USAGE ( .BOTH. , #108 ) ;
#110 = PRESENTATION_STYLE_ASSIGNMENT (( #109 ) ) ;
#111 =( LENGTH_UNIT ( ) NAMED_UNIT ( * ) SI_UNIT ( $, .METRE. ) );
#112 =( CONVERSION_BASED_UNIT ( 'INCH', #160 ) LENGTH_UNIT ( ) NAMED_UNIT ( #117 ) );
#113 =( NAMED_UNIT ( * ) PLANE_ANGLE_UNIT ( ) SI_UNIT ( $, .RADIAN. ) );
#114 =( NAMED_UNIT ( * ) SI_UNIT ( $, .STERADIAN. ) SOLID_ANGLE_UNIT ( ) );
#115 = DIMENSIONAL_EXPONENTS ( 1.000000000000000000, 0.0000000000000000000, 0.0000000000000000000, 0.0000000000000000000, 0.0000000000000000000, 0.0000000000000000000, 0.0000000000000000000 ) ;
#116 = PRODUCT ( 'Q063C', 'Q063C', '', ( #72 ) ) ;
#117 = DIMENSIONAL_EXPONENTS ( 1.000000000000000000, 0.0000000000000000000, 0.0000000000000000000, 0.0000000000000000000, 0.0000000000000000000, 0.0000000000000000000, 0.0000000000000000000 ) ;
#118 = DIMENSIONAL_EXPONENTS ( 1.000000000000000000, 0.0000000000000000000, 0.0000000000000000000, 0.0000000000000000000, 0.0000000000000000000, 0.0000000000000000000, 0.0000000000000000000 ) ;
#119 = EDGE_LOOP ( 'NONE', ( #129, #8, #133, #7 ) ) ;
#120 = EDGE_LOOP ( 'NONE', ( #5, #134, #135, #131 ) ) ;
#121 = EDGE_LOOP ( 'NONE', ( #6, #132, #127, #130 ) ) ;
#122 = EDGE_LOOP ( 'NONE', ( #126, #16, #128, #18 ) ) ;
#123 = EDGE_LOOP ( 'NONE', ( #17, #23, #15, #19 ) ) ;
#124 = EDGE_LOOP ( 'NONE', ( #20, #21, #125, #22 ) ) ;
#125 = ORIENTED_EDGE ( 'NONE', *, *, #50, .F. ) ;
#126 = ORIENTED_EDGE ( 'NONE', *, *, #46, .T. ) ;
#127 = ORIENTED_EDGE ( 'NONE', *, *, #53, .F. ) ;
#128 = ORIENTED_EDGE ( 'NONE', *, *, #47, .F. ) ;
#129 = ORIENTED_EDGE ( 'NONE', *, *, #57, .T. ) ;
#130 = ORIENTED_EDGE ( 'NONE', *, *, #56, .T. ) ;
#131 = ORIENTED_EDGE ( 'NONE', *, *, #54, .T. ) ;
#132 = ORIENTED_EDGE ( 'NONE', *, *, #52, .F. ) ;
#133 = ORIENTED_EDGE ( 'NONE', *, *, #48, .F. ) ;
#134 = ORIENTED_EDGE ( 'NONE', *, *, #49, .F. ) ;
#135 = ORIENTED_EDGE ( 'NONE', *, *, #55, .F. ) ;
#136 = PRODUCT_DEFINITION_CONTEXT ( 'detailed design', #173, 'design' ) ;
#137 = PRODUCT_DEFINITION_SHAPE ( 'NONE', 'NONE',  #44 ) ;
#138 = MANIFOLD_SOLID_BREP ( 'Boss-Extrude1', #162 ) ;
#139 = UNCERTAINTY_MEASURE_WITH_UNIT (LENGTH_MEASURE( 1.000000000000000100E-005 ), #77, 'distance_accuracy_value', 'NONE');
#140 = UNCERTAINTY_MEASURE_WITH_UNIT (LENGTH_MEASURE( 1.000000000000000100E-005 ), #112, 'distance_accuracy_value', 'NONE');
#141 = UNCERTAINTY_MEASURE_WITH_UNIT (LENGTH_MEASURE( 1.000000000000000100E-005 ), #87, 'distance_accuracy_value', 'NONE');
#142 = ADVANCED_BREP_SHAPE_REPRESENTATION ( 'Q063C', ( #138, #2 ), #170 ) ;
#143 = VECTOR ( 'NONE', #193, 39.37007874015748100 ) ;
#144 = VECTOR ( 'NONE', #196, 39.37007874015748100 ) ;
#145 = VECTOR ( 'NONE', #199, 39.37007874015748100 ) ;
#146 = VECTOR ( 'NONE', #202, 39.37007874015748100 ) ;
#147 = STYLED_ITEM ( 'NONE', ( #110 ), #138 ) ;
#148 = VECTOR ( 'NONE', #205, 39.37007874015748100 ) ;
#149 = AXIS2_PLACEMENT_3D ( 'NONE', #206, #207, #208 ) ;
#150 = FACE_OUTER_BOUND ( 'NONE', #119, .T. ) ;
#151 = PRESENTATION_LAYER_ASSIGNMENT (  '', '', ( #147 ) ) ;
#152 = AXIS2_PLACEMENT_3D ( 'NONE', #210, #211, #90 ) ;
#153 = FACE_OUTER_BOUND ( 'NONE', #120, .T. ) ;
#154 = FACE_OUTER_BOUND ( 'NONE', #122, .T. ) ;
#155 = AXIS2_PLACEMENT_3D ( 'NONE', #92, #93, #94 ) ;
#156 = FACE_OUTER_BOUND ( 'NONE', #124, .T. ) ;
#157 = AXIS2_PLACEMENT_3D ( 'NONE', #96, #97, #98 ) ;
#158 = MECHANICAL_DESIGN_GEOMETRIC_PRESENTATION_REPRESENTATION (  '', ( #147 ), #65 ) ;
#159 = AXIS2_PLACEMENT_3D ( 'NONE', #100, #101, #102 ) ;
#160 = LENGTH_MEASURE_WITH_UNIT ( LENGTH_MEASURE( 0.02539999999999999900 ), #111 );
#161 = LENGTH_MEASURE_WITH_UNIT ( LENGTH_MEASURE( 0.02539999999999999900 ), #76 );
#162 = CLOSED_SHELL ( 'NONE', ( #58, #59, #60, #61, #42, #62 ) ) ;
#163 = FACE_OUTER_BOUND ( 'NONE', #123, .T. ) ;
#164 = VECTOR ( 'NONE', #178, 39.37007874015748100 ) ;
#165 = VECTOR ( 'NONE', #40, 39.37007874015748100 ) ;
#166 = VECTOR ( 'NONE', #36, 39.37007874015748100 ) ;
#167 = FACE_OUTER_BOUND ( 'NONE', #121, .T. ) ;
#168 = STYLED_ITEM ( 'NONE', ( #85 ), #142 ) ;
#169 = AXIS2_PLACEMENT_3D ( 'NONE', #31, #32, #33 ) ;
#170 =( GEOMETRIC_REPRESENTATION_CONTEXT ( 3 ) GLOBAL_UNCERTAINTY_ASSIGNED_CONTEXT ( ( #139 ) ) GLOBAL_UNIT_ASSIGNED_CONTEXT ( ( #77, #78, #79 ) ) REPRESENTATION_CONTEXT ( 'NONE', 'WORKASPACE' ) );
#171 =( GEOMETRIC_REPRESENTATION_CONTEXT ( 3 ) GLOBAL_UNCERTAINTY_ASSIGNED_CONTEXT ( ( #141 ) ) GLOBAL_UNIT_ASSIGNED_CONTEXT ( ( #87, #88, #89 ) ) REPRESENTATION_CONTEXT ( 'NONE', 'WORKASPACE' ) );
#172 = APPLICATION_CONTEXT ( 'automotive_design' ) ;
#173 = APPLICATION_CONTEXT ( 'automotive_design' ) ;
#174 = VECTOR ( 'NONE', #181, 39.37007874015748100 ) ;
#175 = VECTOR ( 'NONE', #184, 39.37007874015748100 ) ;
#176 = LINE ( 'NONE', #177, #164 ) ;
#177 = CARTESIAN_POINT ( 'NONE',  ( 0.3749999999999999400, 0.06250000000000000000, -0.3750000000000000600 ) ) ;
#178 = DIRECTION ( 'NONE',  ( -1.821231995776175700E-016, -0.0000000000000000000, -1.000000000000000000 ) ) ;
#179 = LINE ( 'NONE', #180, #174 ) ;
#180 = CARTESIAN_POINT ( 'NONE',  ( 0.0000000000000000000, 0.06250000000000000000, -0.3750000000000000600 ) ) ;
#181 = DIRECTION ( 'NONE',  ( -0.0000000000000000000, -1.000000000000000000, -0.0000000000000000000 ) ) ;
#182 = LINE ( 'NONE', #183, #175 ) ;
#183 = CARTESIAN_POINT ( 'NONE',  ( 0.0000000000000000000, 0.0000000000000000000, -0.3750000000000000600 ) ) ;
#184 = DIRECTION ( 'NONE',  ( -1.000000000000000000, -0.0000000000000000000, -0.0000000000000000000 ) ) ;
#185 = LINE ( 'NONE', #186, #64 ) ;
#186 = CARTESIAN_POINT ( 'NONE',  ( 0.3750000000000000600, 0.0000000000000000000, -1.530808498934192100E-017 ) ) ;
#187 = DIRECTION ( 'NONE',  ( 1.000000000000000000, -0.0000000000000000000, -4.082155997157846300E-017 ) ) ;
#188 = LINE ( 'NONE', #189, #66 ) ;
#189 = CARTESIAN_POINT ( 'NONE',  ( 0.3750000000000000600, 0.06250000000000000000, -1.530808498934192100E-017 ) ) ;
#190 = DIRECTION ( 'NONE',  ( -0.0000000000000000000, -1.000000000000000000, -0.0000000000000000000 ) ) ;
#191 = LINE ( 'NONE', #192, #143 ) ;
#192 = CARTESIAN_POINT ( 'NONE',  ( 0.3750000000000000600, 0.06250000000000000000, -1.530808498934192100E-017 ) ) ;
#193 = DIRECTION ( 'NONE',  ( 1.000000000000000000, -0.0000000000000000000, -4.082155997157846300E-017 ) ) ;
#194 = LINE ( 'NONE', #195, #144 ) ;
#195 = CARTESIAN_POINT ( 'NONE',  ( 0.3749999999999999400, 0.06250000000000000000, -0.3750000000000000600 ) ) ;
#196 = DIRECTION ( 'NONE',  ( -0.0000000000000000000, -1.000000000000000000, -0.0000000000000000000 ) ) ;
#197 = LINE ( 'NONE', #198, #145 ) ;
#198 = CARTESIAN_POINT ( 'NONE',  ( 0.0000000000000000000, 0.06250000000000000000, -0.3750000000000000600 ) ) ;
#199 = DIRECTION ( 'NONE',  ( -1.000000000000000000, -0.0000000000000000000, -0.0000000000000000000 ) ) ;
#200 = LINE ( 'NONE', #201, #146 ) ;
#201 = CARTESIAN_POINT ( 'NONE',  ( 0.0000000000000000000, 0.06250000000000000000, 0.0000000000000000000 ) ) ;
#202 = DIRECTION ( 'NONE',  ( -0.0000000000000000000, -1.000000000000000000, -0.0000000000000000000 ) ) ;
#203 = LINE ( 'NONE', #204, #148 ) ;
#204 = CARTESIAN_POINT ( 'NONE',  ( 0.3749999999999999400, 0.0000000000000000000, -0.3750000000000000600 ) ) ;
#205 = DIRECTION ( 'NONE',  ( -1.821231995776175700E-016, -0.0000000000000000000, -1.000000000000000000 ) ) ;
#206 = CARTESIAN_POINT ( 'NONE',  ( 0.3750000000000000600, 0.06250000000000000000, -1.530808498934192100E-017 ) ) ;
#207 = DIRECTION ( 'NONE',  ( -4.082155997157846300E-017, 0.0000000000000000000, -1.000000000000000000 ) ) ;
#208 = DIRECTION ( 'NONE',  ( -1.000000000000000000, 0.0000000000000000000, 4.082155997157846300E-017 ) ) ;
#209 = PLANE ( 'NONE',  #152 ) ;
#210 = CARTESIAN_POINT ( 'NONE',  ( 0.3749999999999999400, 0.06250000000000000000, -0.3750000000000000600 ) ) ;
#211 = DIRECTION ( 'NONE',  ( -1.000000000000000000, 0.0000000000000000000, 1.821231995776175500E-016 ) ) ;
ENDSEC;
END-ISO-10303-21;
