ISO-10303-21;
HEADER;
FILE_DESCRIPTION (( 'STEP AP214' ),
    '1' );
FILE_NAME ('Q063CN42.step',
    '2012-04-20T21:02:45',
    ( '' ),
    ( '' ),
    'SwSTEP 2.0',
    'SolidWorks 2012',
    '' );
FILE_SCHEMA (( 'AUTOMOTIVE_DESIGN' ));
ENDSEC;

DATA;
#1 =( LENGTH_UNIT ( ) NAMED_UNIT ( * ) SI_UNIT ( $, .METRE. ) );
#2 =( CONVERSION_BASED_UNIT ( 'INCH', #130 ) LENGTH_UNIT ( ) NAMED_UNIT ( #146 ) );
#3 =( NAMED_UNIT ( * ) PLANE_ANGLE_UNIT ( ) SI_UNIT ( $, .RADIAN. ) );
#4 =( NAMED_UNIT ( * ) SI_UNIT ( $, .STERADIAN. ) SOLID_ANGLE_UNIT ( ) );
#5 = FACE_OUTER_BOUND ( 'NONE', #158, .T. ) ;
#6 = PRESENTATION_LAYER_ASSIGNMENT (  '', '', ( #152 ) ) ;
#7 = CLOSED_SHELL ( 'NONE', ( #50, #51, #52, #53, #37, #54 ) ) ;
#8 = FACE_OUTER_BOUND ( 'NONE', #160, .T. ) ;
#9 = AXIS2_PLACEMENT_3D ( 'NONE', #175, #176, #177 ) ;
#10 = DIRECTION ( 'NONE',  ( 1.000000000000000000, -0.0000000000000000000, 0.0000000000000000000 ) ) ;
#11 = DIRECTION ( 'NONE',  ( 0.0000000000000000000, 0.0000000000000000000, -1.000000000000000000 ) ) ;
#12 = PLANE ( 'NONE',  #141 ) ;
#13 = CARTESIAN_POINT ( 'NONE',  ( 0.0000000000000000000, 0.0000000000000000000, 0.0000000000000000000 ) ) ;
#14 = DIRECTION ( 'NONE',  ( 0.0000000000000000000, -1.000000000000000000, -0.0000000000000000000 ) ) ;
#15 = DIRECTION ( 'NONE',  ( 0.0000000000000000000, 0.0000000000000000000, -1.000000000000000000 ) ) ;
#16 = FILL_AREA_STYLE_COLOUR ( '', #36 ) ;
#17 = FILL_AREA_STYLE ('',( #16 ) ) ;
#18 = SURFACE_STYLE_FILL_AREA ( #17 ) ;
#19 = SURFACE_SIDE_STYLE ('',( #18 ) ) ;
#20 = SURFACE_STYLE_USAGE ( .BOTH. , #19 ) ;
#21 = PRESENTATION_STYLE_ASSIGNMENT (( #20 ) ) ;
#22 =( LENGTH_UNIT ( ) NAMED_UNIT ( * ) SI_UNIT ( $, .METRE. ) );
#23 =( CONVERSION_BASED_UNIT ( 'INCH', #144 ) LENGTH_UNIT ( ) NAMED_UNIT ( #147 ) );
#24 =( NAMED_UNIT ( * ) PLANE_ANGLE_UNIT ( ) SI_UNIT ( $, .RADIAN. ) );
#25 =( NAMED_UNIT ( * ) SI_UNIT ( $, .STERADIAN. ) SOLID_ANGLE_UNIT ( ) );
#26 = CARTESIAN_POINT ( 'NONE',  ( 0.0000000000000000000, 0.0000000000000000000, 0.0000000000000000000 ) ) ;
#27 = CARTESIAN_POINT ( 'NONE',  ( 0.3750000000000000600, 0.0000000000000000000, -1.530808498934192100E-017 ) ) ;
#28 = CARTESIAN_POINT ( 'NONE',  ( 0.3750000000000000600, 0.06250000000000000000, -1.530808498934192100E-017 ) ) ;
#29 = CARTESIAN_POINT ( 'NONE',  ( 0.0000000000000000000, 0.06250000000000000000, 0.0000000000000000000 ) ) ;
#30 = CARTESIAN_POINT ( 'NONE',  ( 0.3749999999999999400, 0.0000000000000000000, -0.3750000000000000600 ) ) ;
#31 = CARTESIAN_POINT ( 'NONE',  ( 0.3749999999999999400, 0.06250000000000000000, -0.3750000000000000600 ) ) ;
#32 = CARTESIAN_POINT ( 'NONE',  ( 0.0000000000000000000, 0.0000000000000000000, -0.3750000000000000600 ) ) ;
#33 = CARTESIAN_POINT ( 'NONE',  ( 0.0000000000000000000, 0.06250000000000000000, -0.3750000000000000600 ) ) ;
#34 = PRODUCT_RELATED_PRODUCT_CATEGORY ( 'part', '', ( #145 ) ) ;
#35 = PRODUCT_DEFINITION ( 'UNKNOWN', '', #88, #150 ) ;
#36 = COLOUR_RGB ( '',0.5686274509803921400, 0.5686274509803921400, 0.5882352941176470800 ) ;
#37 = ADVANCED_FACE ( 'NONE', ( #8 ), #174, .F. ) ;
#38 = EDGE_CURVE ( 'NONE', #155, #154, #178, .T. ) ;
#39 = EDGE_CURVE ( 'NONE', #153, #154, #182, .T. ) ;
#40 = EDGE_CURVE ( 'NONE', #192, #153, #185, .T. ) ;
#41 = EDGE_CURVE ( 'NONE', #154, #193, #188, .T. ) ;
#42 = EDGE_CURVE ( 'NONE', #194, #193, #191, .T. ) ;
#43 = EDGE_CURVE ( 'NONE', #192, #155, #91, .T. ) ;
#44 = EDGE_CURVE ( 'NONE', #155, #194, #94, .T. ) ;
#45 = EDGE_CURVE ( 'NONE', #196, #195, #97, .T. ) ;
#46 = EDGE_CURVE ( 'NONE', #193, #195, #100, .T. ) ;
#47 = EDGE_CURVE ( 'NONE', #194, #196, #103, .T. ) ;
#48 = EDGE_CURVE ( 'NONE', #195, #153, #106, .T. ) ;
#49 = EDGE_CURVE ( 'NONE', #196, #192, #109, .T. ) ;
#50 = ADVANCED_FACE ( 'NONE', ( #5 ), #181, .F. ) ;
#51 = ADVANCED_FACE ( 'NONE', ( #133 ), #115, .F. ) ;
#52 = ADVANCED_FACE ( 'NONE', ( #134 ), #119, .F. ) ;
#53 = ADVANCED_FACE ( 'NONE', ( #136 ), #123, .F. ) ;
#54 = ADVANCED_FACE ( 'NONE', ( #138 ), #12, .T. ) ;
#55 = COLOUR_RGB ( '',0.5686274509803921400, 0.5686274509803921400, 0.5882352941176470800 ) ;
#56 = VECTOR ( 'NONE', #187, 39.37007874015748100 ) ;
#57 = VECTOR ( 'NONE', #190, 39.37007874015748100 ) ;
#58 = VECTOR ( 'NONE', #93, 39.37007874015748100 ) ;
#59 = VECTOR ( 'NONE', #90, 39.37007874015748100 ) ;
#60 = FILL_AREA_STYLE_COLOUR ( '', #55 ) ;
#61 = FILL_AREA_STYLE ('',( #60 ) ) ;
#62 = SURFACE_STYLE_FILL_AREA ( #61 ) ;
#63 = SURFACE_SIDE_STYLE ('',( #62 ) ) ;
#64 = SURFACE_STYLE_USAGE ( .BOTH. , #63 ) ;
#65 = PRESENTATION_STYLE_ASSIGNMENT (( #64 ) ) ;
#66 =( LENGTH_UNIT ( ) NAMED_UNIT ( * ) SI_UNIT ( $, .METRE. ) );
#67 =( CONVERSION_BASED_UNIT ( 'INCH', #86 ) LENGTH_UNIT ( ) NAMED_UNIT ( #148 ) );
#68 =( NAMED_UNIT ( * ) PLANE_ANGLE_UNIT ( ) SI_UNIT ( $, .RADIAN. ) );
#69 = VECTOR ( 'NONE', #180, 39.37007874015748100 ) ;
#70 = VECTOR ( 'NONE', #184, 39.37007874015748100 ) ;
#71 = APPLICATION_CONTEXT ( 'automotive_design' ) ;
#72 = APPLICATION_CONTEXT ( 'automotive_design' ) ;
#73 =( NAMED_UNIT ( * ) SI_UNIT ( $, .STERADIAN. ) SOLID_ANGLE_UNIT ( ) );
#74 = CARTESIAN_POINT ( 'NONE',  ( 0.0000000000000000000, 0.0000000000000000000, 0.0000000000000000000 ) ) ;
#75 = DIRECTION ( 'NONE',  ( 0.0000000000000000000, 0.0000000000000000000, 1.000000000000000000 ) ) ;
#76 = DIRECTION ( 'NONE',  ( 1.000000000000000000, 0.0000000000000000000, 0.0000000000000000000 ) ) ;
#77 = SHAPE_DEFINITION_REPRESENTATION ( #149, #82 ) ;
#78 = APPLICATION_PROTOCOL_DEFINITION ( 'draft international standard', 'automotive_design', 1998, #71 ) ;
#79 = PRODUCT_CONTEXT ( 'NONE', #71, 'mechanical' ) ;
#80 = APPLICATION_PROTOCOL_DEFINITION ( 'draft international standard', 'automotive_design', 1998, #72 ) ;
#81 = UNCERTAINTY_MEASURE_WITH_UNIT (LENGTH_MEASURE( 1.000000000000000100E-005 ), #2, 'distance_accuracy_value', 'NONE');
#82 = ADVANCED_BREP_SHAPE_REPRESENTATION ( 'Q063CN42', ( #151, #87 ), #210 ) ;
#83 = UNCERTAINTY_MEASURE_WITH_UNIT (LENGTH_MEASURE( 1.000000000000000100E-005 ), #67, 'distance_accuracy_value', 'NONE');
#84 = UNCERTAINTY_MEASURE_WITH_UNIT (LENGTH_MEASURE( 1.000000000000000100E-005 ), #23, 'distance_accuracy_value', 'NONE');
#85 = MECHANICAL_DESIGN_GEOMETRIC_PRESENTATION_REPRESENTATION (  '', ( #152 ), #211 ) ;
#86 = LENGTH_MEASURE_WITH_UNIT ( LENGTH_MEASURE( 0.02539999999999999900 ), #66 );
#87 = AXIS2_PLACEMENT_3D ( 'NONE', #74, #75, #76 ) ;
#88 = PRODUCT_DEFINITION_FORMATION_WITH_SPECIFIED_SOURCE ( 'ANY', '', #145, .NOT_KNOWN. ) ;
#89 = CARTESIAN_POINT ( 'NONE',  ( 0.3749999999999999400, 0.06250000000000000000, -0.3750000000000000600 ) ) ;
#90 = DIRECTION ( 'NONE',  ( -0.0000000000000000000, -1.000000000000000000, -0.0000000000000000000 ) ) ;
#91 = LINE ( 'NONE', #92, #58 ) ;
#92 = CARTESIAN_POINT ( 'NONE',  ( 0.3750000000000000600, 0.06250000000000000000, -1.530808498934192100E-017 ) ) ;
#93 = DIRECTION ( 'NONE',  ( 1.000000000000000000, -0.0000000000000000000, -4.082155997157846300E-017 ) ) ;
#94 = LINE ( 'NONE', #95, #125 ) ;
#95 = CARTESIAN_POINT ( 'NONE',  ( 0.3749999999999999400, 0.06250000000000000000, -0.3750000000000000600 ) ) ;
#96 = DIRECTION ( 'NONE',  ( -1.821231995776175700E-016, -0.0000000000000000000, -1.000000000000000000 ) ) ;
#97 = LINE ( 'NONE', #98, #126 ) ;
#98 = CARTESIAN_POINT ( 'NONE',  ( 0.0000000000000000000, 0.06250000000000000000, -0.3750000000000000600 ) ) ;
#99 = DIRECTION ( 'NONE',  ( -0.0000000000000000000, -1.000000000000000000, -0.0000000000000000000 ) ) ;
#100 = LINE ( 'NONE', #101, #127 ) ;
#101 = CARTESIAN_POINT ( 'NONE',  ( 0.0000000000000000000, 0.0000000000000000000, -0.3750000000000000600 ) ) ;
#102 = DIRECTION ( 'NONE',  ( -1.000000000000000000, -0.0000000000000000000, -0.0000000000000000000 ) ) ;
#103 = LINE ( 'NONE', #104, #128 ) ;
#104 = CARTESIAN_POINT ( 'NONE',  ( 0.0000000000000000000, 0.06250000000000000000, -0.3750000000000000600 ) ) ;
#105 = DIRECTION ( 'NONE',  ( -1.000000000000000000, -0.0000000000000000000, -0.0000000000000000000 ) ) ;
#106 = LINE ( 'NONE', #107, #129 ) ;
#107 = CARTESIAN_POINT ( 'NONE',  ( 0.0000000000000000000, 0.0000000000000000000, 0.0000000000000000000 ) ) ;
#108 = DIRECTION ( 'NONE',  ( -0.0000000000000000000, -0.0000000000000000000, 1.000000000000000000 ) ) ;
#109 = LINE ( 'NONE', #110, #131 ) ;
#110 = CARTESIAN_POINT ( 'NONE',  ( 0.0000000000000000000, 0.06250000000000000000, 0.0000000000000000000 ) ) ;
#111 = DIRECTION ( 'NONE',  ( -0.0000000000000000000, -0.0000000000000000000, 1.000000000000000000 ) ) ;
#112 = CARTESIAN_POINT ( 'NONE',  ( 0.3750000000000000600, 0.06250000000000000000, -1.530808498934192100E-017 ) ) ;
#113 = DIRECTION ( 'NONE',  ( -4.082155997157846300E-017, 0.0000000000000000000, -1.000000000000000000 ) ) ;
#114 = DIRECTION ( 'NONE',  ( -1.000000000000000000, 0.0000000000000000000, 4.082155997157846300E-017 ) ) ;
#115 = PLANE ( 'NONE',  #135 ) ;
#116 = CARTESIAN_POINT ( 'NONE',  ( 0.3749999999999999400, 0.06250000000000000000, -0.3750000000000000600 ) ) ;
#117 = DIRECTION ( 'NONE',  ( -1.000000000000000000, 0.0000000000000000000, 1.821231995776175500E-016 ) ) ;
#118 = DIRECTION ( 'NONE',  ( 1.821231995776175500E-016, 0.0000000000000000000, 1.000000000000000000 ) ) ;
#119 = PLANE ( 'NONE',  #137 ) ;
#120 = CARTESIAN_POINT ( 'NONE',  ( 0.0000000000000000000, 0.06250000000000000000, -0.3750000000000000600 ) ) ;
#121 = DIRECTION ( 'NONE',  ( 0.0000000000000000000, 0.0000000000000000000, 1.000000000000000000 ) ) ;
#122 = DIRECTION ( 'NONE',  ( 1.000000000000000000, 0.0000000000000000000, -0.0000000000000000000 ) ) ;
#123 = PLANE ( 'NONE',  #139 ) ;
#124 = CARTESIAN_POINT ( 'NONE',  ( 0.0000000000000000000, 0.06250000000000000000, 0.0000000000000000000 ) ) ;
#125 = VECTOR ( 'NONE', #96, 39.37007874015748100 ) ;
#126 = VECTOR ( 'NONE', #99, 39.37007874015748100 ) ;
#127 = VECTOR ( 'NONE', #102, 39.37007874015748100 ) ;
#128 = VECTOR ( 'NONE', #105, 39.37007874015748100 ) ;
#129 = VECTOR ( 'NONE', #108, 39.37007874015748100 ) ;
#130 = LENGTH_MEASURE_WITH_UNIT ( LENGTH_MEASURE( 0.02539999999999999900 ), #1 );
#131 = VECTOR ( 'NONE', #111, 39.37007874015748100 ) ;
#132 = AXIS2_PLACEMENT_3D ( 'NONE', #112, #113, #114 ) ;
#133 = FACE_OUTER_BOUND ( 'NONE', #156, .T. ) ;
#134 = FACE_OUTER_BOUND ( 'NONE', #157, .T. ) ;
#135 = AXIS2_PLACEMENT_3D ( 'NONE', #116, #117, #118 ) ;
#136 = FACE_OUTER_BOUND ( 'NONE', #159, .T. ) ;
#137 = AXIS2_PLACEMENT_3D ( 'NONE', #120, #121, #122 ) ;
#138 = FACE_OUTER_BOUND ( 'NONE', #161, .T. ) ;
#139 = AXIS2_PLACEMENT_3D ( 'NONE', #124, #10, #11 ) ;
#140 = STYLED_ITEM ( 'NONE', ( #21 ), #151 ) ;
#141 = AXIS2_PLACEMENT_3D ( 'NONE', #13, #14, #15 ) ;
#142 = PRESENTATION_LAYER_ASSIGNMENT (  '', '', ( #140 ) ) ;
#143 = MECHANICAL_DESIGN_GEOMETRIC_PRESENTATION_REPRESENTATION (  '', ( #140 ), #209 ) ;
#144 = LENGTH_MEASURE_WITH_UNIT ( LENGTH_MEASURE( 0.02539999999999999900 ), #22 );
#145 = PRODUCT ( 'Q063CN42', 'Q063CN42', '', ( #79 ) ) ;
#146 = DIMENSIONAL_EXPONENTS ( 1.000000000000000000, 0.0000000000000000000, 0.0000000000000000000, 0.0000000000000000000, 0.0000000000000000000, 0.0000000000000000000, 0.0000000000000000000 ) ;
#147 = DIMENSIONAL_EXPONENTS ( 1.000000000000000000, 0.0000000000000000000, 0.0000000000000000000, 0.0000000000000000000, 0.0000000000000000000, 0.0000000000000000000, 0.0000000000000000000 ) ;
#148 = DIMENSIONAL_EXPONENTS ( 1.000000000000000000, 0.0000000000000000000, 0.0000000000000000000, 0.0000000000000000000, 0.0000000000000000000, 0.0000000000000000000, 0.0000000000000000000 ) ;
#149 = PRODUCT_DEFINITION_SHAPE ( 'NONE', 'NONE',  #35 ) ;
#150 = PRODUCT_DEFINITION_CONTEXT ( 'detailed design', #72, 'design' ) ;
#151 = MANIFOLD_SOLID_BREP ( 'Boss-Extrude1', #7 ) ;
#152 = STYLED_ITEM ( 'NONE', ( #65 ), #82 ) ;
#153 = VERTEX_POINT ( 'NONE', #26 ) ;
#154 = VERTEX_POINT ( 'NONE', #27 ) ;
#155 = VERTEX_POINT ( 'NONE', #28 ) ;
#156 = EDGE_LOOP ( 'NONE', ( #162, #172, #173, #171 ) ) ;
#157 = EDGE_LOOP ( 'NONE', ( #169, #167, #168, #165 ) ) ;
#158 = EDGE_LOOP ( 'NONE', ( #170, #163, #164, #166 ) ) ;
#159 = EDGE_LOOP ( 'NONE', ( #200, #202, #199, #207 ) ) ;
#160 = EDGE_LOOP ( 'NONE', ( #201, #206, #208, #204 ) ) ;
#161 = EDGE_LOOP ( 'NONE', ( #203, #197, #198, #205 ) ) ;
#162 = ORIENTED_EDGE ( 'NONE', *, *, #41, .T. ) ;
#163 = ORIENTED_EDGE ( 'NONE', *, *, #38, .F. ) ;
#164 = ORIENTED_EDGE ( 'NONE', *, *, #43, .F. ) ;
#165 = ORIENTED_EDGE ( 'NONE', *, *, #42, .T. ) ;
#166 = ORIENTED_EDGE ( 'NONE', *, *, #40, .T. ) ;
#167 = ORIENTED_EDGE ( 'NONE', *, *, #45, .F. ) ;
#168 = ORIENTED_EDGE ( 'NONE', *, *, #47, .F. ) ;
#169 = ORIENTED_EDGE ( 'NONE', *, *, #46, .T. ) ;
#170 = ORIENTED_EDGE ( 'NONE', *, *, #39, .T. ) ;
#171 = ORIENTED_EDGE ( 'NONE', *, *, #38, .T. ) ;
#172 = ORIENTED_EDGE ( 'NONE', *, *, #42, .F. ) ;
#173 = ORIENTED_EDGE ( 'NONE', *, *, #44, .F. ) ;
#174 = PLANE ( 'NONE',  #9 ) ;
#175 = CARTESIAN_POINT ( 'NONE',  ( 0.0000000000000000000, 0.06250000000000000000, 0.0000000000000000000 ) ) ;
#176 = DIRECTION ( 'NONE',  ( 0.0000000000000000000, -1.000000000000000000, -0.0000000000000000000 ) ) ;
#177 = DIRECTION ( 'NONE',  ( 0.0000000000000000000, 0.0000000000000000000, -1.000000000000000000 ) ) ;
#178 = LINE ( 'NONE', #179, #69 ) ;
#179 = CARTESIAN_POINT ( 'NONE',  ( 0.3750000000000000600, 0.06250000000000000000, -1.530808498934192100E-017 ) ) ;
#180 = DIRECTION ( 'NONE',  ( -0.0000000000000000000, -1.000000000000000000, -0.0000000000000000000 ) ) ;
#181 = PLANE ( 'NONE',  #132 ) ;
#182 = LINE ( 'NONE', #183, #70 ) ;
#183 = CARTESIAN_POINT ( 'NONE',  ( 0.3750000000000000600, 0.0000000000000000000, -1.530808498934192100E-017 ) ) ;
#184 = DIRECTION ( 'NONE',  ( 1.000000000000000000, -0.0000000000000000000, -4.082155997157846300E-017 ) ) ;
#185 = LINE ( 'NONE', #186, #56 ) ;
#186 = CARTESIAN_POINT ( 'NONE',  ( 0.0000000000000000000, 0.06250000000000000000, 0.0000000000000000000 ) ) ;
#187 = DIRECTION ( 'NONE',  ( -0.0000000000000000000, -1.000000000000000000, -0.0000000000000000000 ) ) ;
#188 = LINE ( 'NONE', #189, #57 ) ;
#189 = CARTESIAN_POINT ( 'NONE',  ( 0.3749999999999999400, 0.0000000000000000000, -0.3750000000000000600 ) ) ;
#190 = DIRECTION ( 'NONE',  ( -1.821231995776175700E-016, -0.0000000000000000000, -1.000000000000000000 ) ) ;
#191 = LINE ( 'NONE', #89, #59 ) ;
#192 = VERTEX_POINT ( 'NONE', #29 ) ;
#193 = VERTEX_POINT ( 'NONE', #30 ) ;
#194 = VERTEX_POINT ( 'NONE', #31 ) ;
#195 = VERTEX_POINT ( 'NONE', #32 ) ;
#196 = VERTEX_POINT ( 'NONE', #33 ) ;
#197 = ORIENTED_EDGE ( 'NONE', *, *, #48, .F. ) ;
#198 = ORIENTED_EDGE ( 'NONE', *, *, #46, .F. ) ;
#199 = ORIENTED_EDGE ( 'NONE', *, *, #49, .F. ) ;
#200 = ORIENTED_EDGE ( 'NONE', *, *, #48, .T. ) ;
#201 = ORIENTED_EDGE ( 'NONE', *, *, #43, .T. ) ;
#202 = ORIENTED_EDGE ( 'NONE', *, *, #40, .F. ) ;
#203 = ORIENTED_EDGE ( 'NONE', *, *, #39, .F. ) ;
#204 = ORIENTED_EDGE ( 'NONE', *, *, #49, .T. ) ;
#205 = ORIENTED_EDGE ( 'NONE', *, *, #41, .F. ) ;
#206 = ORIENTED_EDGE ( 'NONE', *, *, #44, .T. ) ;
#207 = ORIENTED_EDGE ( 'NONE', *, *, #45, .T. ) ;
#208 = ORIENTED_EDGE ( 'NONE', *, *, #47, .T. ) ;
#209 =( GEOMETRIC_REPRESENTATION_CONTEXT ( 3 ) GLOBAL_UNCERTAINTY_ASSIGNED_CONTEXT ( ( #84 ) ) GLOBAL_UNIT_ASSIGNED_CONTEXT ( ( #23, #24, #25 ) ) REPRESENTATION_CONTEXT ( 'NONE', 'WORKASPACE' ) );
#210 =( GEOMETRIC_REPRESENTATION_CONTEXT ( 3 ) GLOBAL_UNCERTAINTY_ASSIGNED_CONTEXT ( ( #81 ) ) GLOBAL_UNIT_ASSIGNED_CONTEXT ( ( #2, #3, #4 ) ) REPRESENTATION_CONTEXT ( 'NONE', 'WORKASPACE' ) );
#211 =( GEOMETRIC_REPRESENTATION_CONTEXT ( 3 ) GLOBAL_UNCERTAINTY_ASSIGNED_CONTEXT ( ( #83 ) ) GLOBAL_UNIT_ASSIGNED_CONTEXT ( ( #67, #68, #73 ) ) REPRESENTATION_CONTEXT ( 'NONE', 'WORKASPACE' ) );
ENDSEC;
END-ISO-10303-21;
