ISO-10303-21;
HEADER;
FILE_DESCRIPTION (( 'STEP AP214' ),
    '1' );
FILE_NAME ('Q1000PN50.step',
    '2012-04-20T21:02:53',
    ( '' ),
    ( '' ),
    'SwSTEP 2.0',
    'SolidWorks 2012',
    '' );
FILE_SCHEMA (( 'AUTOMOTIVE_DESIGN' ));
ENDSEC;

DATA;
#1 = CARTESIAN_POINT ( 'NONE',  ( 0.0000000000000000000, 0.0000000000000000000, 0.0000000000000000000 ) ) ;
#2 = DIRECTION ( 'NONE',  ( 0.0000000000000000000, 0.0000000000000000000, 1.000000000000000000 ) ) ;
#3 = DIRECTION ( 'NONE',  ( 1.000000000000000000, 0.0000000000000000000, 0.0000000000000000000 ) ) ;
#4 = SHAPE_DEFINITION_REPRESENTATION ( #174, #185 ) ;
#5 = APPLICATION_PROTOCOL_DEFINITION ( 'draft international standard', 'automotive_design', 1998, #88 ) ;
#6 = PRODUCT_CONTEXT ( 'NONE', #88, 'mechanical' ) ;
#7 = APPLICATION_PROTOCOL_DEFINITION ( 'draft international standard', 'automotive_design', 1998, #89 ) ;
#8 = AXIS2_PLACEMENT_3D ( 'NONE', #131, #132, #133 ) ;
#9 = FACE_OUTER_BOUND ( 'NONE', #63, .T. ) ;
#10 = PLANE ( 'NONE',  #96 ) ;
#11 = CARTESIAN_POINT ( 'NONE',  ( 0.0000000000000000000, 1.000000000000000000, 0.0000000000000000000 ) ) ;
#12 = DIRECTION ( 'NONE',  ( 0.0000000000000000000, -1.000000000000000000, -0.0000000000000000000 ) ) ;
#13 = DIRECTION ( 'NONE',  ( 0.0000000000000000000, 0.0000000000000000000, -1.000000000000000000 ) ) ;
#14 = CARTESIAN_POINT ( 'NONE',  ( 1.999999999999999300, 1.000000000000000000, -2.000000000000000000 ) ) ;
#15 = CARTESIAN_POINT ( 'NONE',  ( 0.0000000000000000000, 0.0000000000000000000, -2.000000000000000000 ) ) ;
#16 = CARTESIAN_POINT ( 'NONE',  ( 0.0000000000000000000, 1.000000000000000000, -2.000000000000000000 ) ) ;
#17 = CARTESIAN_POINT ( 'NONE',  ( 0.0000000000000000000, 0.0000000000000000000, 0.0000000000000000000 ) ) ;
#18 = CARTESIAN_POINT ( 'NONE',  ( 2.000000000000000000, 0.0000000000000000000, -1.224646799147353200E-016 ) ) ;
#19 = CARTESIAN_POINT ( 'NONE',  ( 2.000000000000000000, 1.000000000000000000, -1.224646799147353200E-016 ) ) ;
#20 = CARTESIAN_POINT ( 'NONE',  ( 0.0000000000000000000, 1.000000000000000000, 0.0000000000000000000 ) ) ;
#21 = FILL_AREA_STYLE_COLOUR ( '', #36 ) ;
#22 = FILL_AREA_STYLE ('',( #21 ) ) ;
#23 = SURFACE_STYLE_FILL_AREA ( #22 ) ;
#24 = SURFACE_SIDE_STYLE ('',( #23 ) ) ;
#25 = SURFACE_STYLE_USAGE ( .BOTH. , #24 ) ;
#26 = PRESENTATION_STYLE_ASSIGNMENT (( #25 ) ) ;
#27 =( LENGTH_UNIT ( ) NAMED_UNIT ( * ) SI_UNIT ( $, .METRE. ) );
#28 =( CONVERSION_BASED_UNIT ( 'INCH', #55 ) LENGTH_UNIT ( ) NAMED_UNIT ( #136 ) );
#29 =( NAMED_UNIT ( * ) PLANE_ANGLE_UNIT ( ) SI_UNIT ( $, .RADIAN. ) );
#30 =( NAMED_UNIT ( * ) SI_UNIT ( $, .STERADIAN. ) SOLID_ANGLE_UNIT ( ) );
#31 = CARTESIAN_POINT ( 'NONE',  ( 1.999999999999999300, 0.0000000000000000000, -2.000000000000000000 ) ) ;
#32 =( LENGTH_UNIT ( ) NAMED_UNIT ( * ) SI_UNIT ( $, .METRE. ) );
#33 = PRODUCT_DEFINITION ( 'UNKNOWN', '', #87, #176 ) ;
#34 = COLOUR_RGB ( '',0.5686274509803921400, 0.5686274509803921400, 0.5882352941176470800 ) ;
#35 = PRODUCT_RELATED_PRODUCT_CATEGORY ( 'part', '', ( #134 ) ) ;
#36 = COLOUR_RGB ( '',0.5686274509803921400, 0.5686274509803921400, 0.5882352941176470800 ) ;
#37 = EDGE_CURVE ( 'NONE', #57, #90, #154, .T. ) ;
#38 = EDGE_CURVE ( 'NONE', #58, #93, #158, .T. ) ;
#39 = EDGE_CURVE ( 'NONE', #91, #211, #161, .T. ) ;
#40 = EDGE_CURVE ( 'NONE', #92, #91, #164, .T. ) ;
#41 = EDGE_CURVE ( 'NONE', #92, #56, #167, .T. ) ;
#42 = EDGE_CURVE ( 'NONE', #90, #91, #170, .T. ) ;
#43 = EDGE_CURVE ( 'NONE', #58, #57, #173, .T. ) ;
#44 = EDGE_CURVE ( 'NONE', #56, #211, #100, .T. ) ;
#45 = EDGE_CURVE ( 'NONE', #211, #57, #103, .T. ) ;
#46 = EDGE_CURVE ( 'NONE', #93, #92, #106, .T. ) ;
#47 = EDGE_CURVE ( 'NONE', #93, #90, #109, .T. ) ;
#48 = EDGE_CURVE ( 'NONE', #56, #58, #112, .T. ) ;
#49 = ADVANCED_FACE ( 'NONE', ( #204 ), #157, .F. ) ;
#50 = ADVANCED_FACE ( 'NONE', ( #177 ), #118, .F. ) ;
#51 = ADVANCED_FACE ( 'NONE', ( #180 ), #122, .F. ) ;
#52 = ADVANCED_FACE ( 'NONE', ( #181 ), #126, .F. ) ;
#53 = ADVANCED_FACE ( 'NONE', ( #97 ), #130, .T. ) ;
#54 = ADVANCED_FACE ( 'NONE', ( #9 ), #10, .F. ) ;
#55 = LENGTH_MEASURE_WITH_UNIT ( LENGTH_MEASURE( 0.02539999999999999900 ), #27 );
#56 = VERTEX_POINT ( 'NONE', #14 ) ;
#57 = VERTEX_POINT ( 'NONE', #15 ) ;
#58 = VERTEX_POINT ( 'NONE', #16 ) ;
#59 = EDGE_LOOP ( 'NONE', ( #138, #68, #72, #67 ) ) ;
#60 = EDGE_LOOP ( 'NONE', ( #139, #70, #142, #69 ) ) ;
#61 = EDGE_LOOP ( 'NONE', ( #71, #141, #143, #140 ) ) ;
#62 = EDGE_LOOP ( 'NONE', ( #152, #148, #145, #144 ) ) ;
#63 = EDGE_LOOP ( 'NONE', ( #147, #153, #151, #149 ) ) ;
#64 = EDGE_LOOP ( 'NONE', ( #146, #66, #65, #150 ) ) ;
#65 = ORIENTED_EDGE ( 'NONE', *, *, #45, .F. ) ;
#66 = ORIENTED_EDGE ( 'NONE', *, *, #37, .F. ) ;
#67 = ORIENTED_EDGE ( 'NONE', *, *, #44, .T. ) ;
#68 = ORIENTED_EDGE ( 'NONE', *, *, #43, .F. ) ;
#69 = ORIENTED_EDGE ( 'NONE', *, *, #47, .T. ) ;
#70 = ORIENTED_EDGE ( 'NONE', *, *, #40, .F. ) ;
#71 = ORIENTED_EDGE ( 'NONE', *, *, #39, .T. ) ;
#72 = ORIENTED_EDGE ( 'NONE', *, *, #48, .F. ) ;
#73 = VECTOR ( 'NONE', #102, 39.37007874015748100 ) ;
#74 = VECTOR ( 'NONE', #111, 39.37007874015748100 ) ;
#75 = VECTOR ( 'NONE', #108, 39.37007874015748100 ) ;
#76 = VECTOR ( 'NONE', #105, 39.37007874015748100 ) ;
#77 = AXIS2_PLACEMENT_3D ( 'NONE', #123, #124, #125 ) ;
#78 = VECTOR ( 'NONE', #114, 39.37007874015748100 ) ;
#79 = VECTOR ( 'NONE', #99, 39.37007874015748100 ) ;
#80 = AXIS2_PLACEMENT_3D ( 'NONE', #115, #116, #117 ) ;
#81 = LENGTH_MEASURE_WITH_UNIT ( LENGTH_MEASURE( 0.02539999999999999900 ), #32 );
#82 = STYLED_ITEM ( 'NONE', ( #198 ), #185 ) ;
#83 = PRESENTATION_LAYER_ASSIGNMENT (  '', '', ( #82 ) ) ;
#84 = MECHANICAL_DESIGN_GEOMETRIC_PRESENTATION_REPRESENTATION (  '', ( #82 ), #189 ) ;
#85 = LENGTH_MEASURE_WITH_UNIT ( LENGTH_MEASURE( 0.02539999999999999900 ), #199 );
#86 = AXIS2_PLACEMENT_3D ( 'NONE', #1, #2, #3 ) ;
#87 = PRODUCT_DEFINITION_FORMATION_WITH_SPECIFIED_SOURCE ( 'ANY', '', #134, .NOT_KNOWN. ) ;
#88 = APPLICATION_CONTEXT ( 'automotive_design' ) ;
#89 = APPLICATION_CONTEXT ( 'automotive_design' ) ;
#90 = VERTEX_POINT ( 'NONE', #17 ) ;
#91 = VERTEX_POINT ( 'NONE', #18 ) ;
#92 = VERTEX_POINT ( 'NONE', #19 ) ;
#93 = VERTEX_POINT ( 'NONE', #20 ) ;
#94 = STYLED_ITEM ( 'NONE', ( #26 ), #175 ) ;
#95 = AXIS2_PLACEMENT_3D ( 'NONE', #127, #128, #129 ) ;
#96 = AXIS2_PLACEMENT_3D ( 'NONE', #11, #12, #13 ) ;
#97 = FACE_OUTER_BOUND ( 'NONE', #64, .T. ) ;
#98 = CARTESIAN_POINT ( 'NONE',  ( 0.0000000000000000000, 1.000000000000000000, -2.000000000000000000 ) ) ;
#99 = DIRECTION ( 'NONE',  ( -0.0000000000000000000, -1.000000000000000000, -0.0000000000000000000 ) ) ;
#100 = LINE ( 'NONE', #101, #73 ) ;
#101 = CARTESIAN_POINT ( 'NONE',  ( 1.999999999999999300, 1.000000000000000000, -2.000000000000000000 ) ) ;
#102 = DIRECTION ( 'NONE',  ( -0.0000000000000000000, -1.000000000000000000, -0.0000000000000000000 ) ) ;
#103 = LINE ( 'NONE', #104, #76 ) ;
#104 = CARTESIAN_POINT ( 'NONE',  ( 0.0000000000000000000, 0.0000000000000000000, -2.000000000000000000 ) ) ;
#105 = DIRECTION ( 'NONE',  ( -1.000000000000000000, -0.0000000000000000000, -0.0000000000000000000 ) ) ;
#106 = LINE ( 'NONE', #107, #75 ) ;
#107 = CARTESIAN_POINT ( 'NONE',  ( 2.000000000000000000, 1.000000000000000000, -1.224646799147353200E-016 ) ) ;
#108 = DIRECTION ( 'NONE',  ( 1.000000000000000000, -0.0000000000000000000, -6.123233995736766000E-017 ) ) ;
#109 = LINE ( 'NONE', #110, #74 ) ;
#110 = CARTESIAN_POINT ( 'NONE',  ( 0.0000000000000000000, 1.000000000000000000, 0.0000000000000000000 ) ) ;
#111 = DIRECTION ( 'NONE',  ( -0.0000000000000000000, -1.000000000000000000, -0.0000000000000000000 ) ) ;
#112 = LINE ( 'NONE', #113, #78 ) ;
#113 = CARTESIAN_POINT ( 'NONE',  ( 0.0000000000000000000, 1.000000000000000000, -2.000000000000000000 ) ) ;
#114 = DIRECTION ( 'NONE',  ( -1.000000000000000000, -0.0000000000000000000, -0.0000000000000000000 ) ) ;
#115 = CARTESIAN_POINT ( 'NONE',  ( 2.000000000000000000, 1.000000000000000000, -1.224646799147353200E-016 ) ) ;
#116 = DIRECTION ( 'NONE',  ( -6.123233995736766000E-017, 0.0000000000000000000, -1.000000000000000000 ) ) ;
#117 = DIRECTION ( 'NONE',  ( -1.000000000000000000, 0.0000000000000000000, 6.123233995736766000E-017 ) ) ;
#118 = PLANE ( 'NONE',  #179 ) ;
#119 = CARTESIAN_POINT ( 'NONE',  ( 1.999999999999999300, 1.000000000000000000, -2.000000000000000000 ) ) ;
#120 = DIRECTION ( 'NONE',  ( -1.000000000000000000, 0.0000000000000000000, 2.731847993664263200E-016 ) ) ;
#121 = DIRECTION ( 'NONE',  ( 2.731847993664263200E-016, 0.0000000000000000000, 1.000000000000000000 ) ) ;
#122 = PLANE ( 'NONE',  #77 ) ;
#123 = CARTESIAN_POINT ( 'NONE',  ( 0.0000000000000000000, 1.000000000000000000, -2.000000000000000000 ) ) ;
#124 = DIRECTION ( 'NONE',  ( 0.0000000000000000000, 0.0000000000000000000, 1.000000000000000000 ) ) ;
#125 = DIRECTION ( 'NONE',  ( 1.000000000000000000, 0.0000000000000000000, -0.0000000000000000000 ) ) ;
#126 = PLANE ( 'NONE',  #95 ) ;
#127 = CARTESIAN_POINT ( 'NONE',  ( 0.0000000000000000000, 1.000000000000000000, 0.0000000000000000000 ) ) ;
#128 = DIRECTION ( 'NONE',  ( 1.000000000000000000, -0.0000000000000000000, 0.0000000000000000000 ) ) ;
#129 = DIRECTION ( 'NONE',  ( 0.0000000000000000000, 0.0000000000000000000, -1.000000000000000000 ) ) ;
#130 = PLANE ( 'NONE',  #8 ) ;
#131 = CARTESIAN_POINT ( 'NONE',  ( 0.0000000000000000000, 0.0000000000000000000, 0.0000000000000000000 ) ) ;
#132 = DIRECTION ( 'NONE',  ( 0.0000000000000000000, -1.000000000000000000, -0.0000000000000000000 ) ) ;
#133 = DIRECTION ( 'NONE',  ( 0.0000000000000000000, 0.0000000000000000000, -1.000000000000000000 ) ) ;
#134 = PRODUCT ( 'Q1000PN50', 'Q1000PN50', '', ( #6 ) ) ;
#135 = DIMENSIONAL_EXPONENTS ( 1.000000000000000000, 0.0000000000000000000, 0.0000000000000000000, 0.0000000000000000000, 0.0000000000000000000, 0.0000000000000000000, 0.0000000000000000000 ) ;
#136 = DIMENSIONAL_EXPONENTS ( 1.000000000000000000, 0.0000000000000000000, 0.0000000000000000000, 0.0000000000000000000, 0.0000000000000000000, 0.0000000000000000000, 0.0000000000000000000 ) ;
#137 = DIMENSIONAL_EXPONENTS ( 1.000000000000000000, 0.0000000000000000000, 0.0000000000000000000, 0.0000000000000000000, 0.0000000000000000000, 0.0000000000000000000, 0.0000000000000000000 ) ;
#138 = ORIENTED_EDGE ( 'NONE', *, *, #45, .T. ) ;
#139 = ORIENTED_EDGE ( 'NONE', *, *, #42, .T. ) ;
#140 = ORIENTED_EDGE ( 'NONE', *, *, #40, .T. ) ;
#141 = ORIENTED_EDGE ( 'NONE', *, *, #44, .F. ) ;
#142 = ORIENTED_EDGE ( 'NONE', *, *, #46, .F. ) ;
#143 = ORIENTED_EDGE ( 'NONE', *, *, #41, .F. ) ;
#144 = ORIENTED_EDGE ( 'NONE', *, *, #43, .T. ) ;
#145 = ORIENTED_EDGE ( 'NONE', *, *, #38, .F. ) ;
#146 = ORIENTED_EDGE ( 'NONE', *, *, #42, .F. ) ;
#147 = ORIENTED_EDGE ( 'NONE', *, *, #46, .T. ) ;
#148 = ORIENTED_EDGE ( 'NONE', *, *, #47, .F. ) ;
#149 = ORIENTED_EDGE ( 'NONE', *, *, #38, .T. ) ;
#150 = ORIENTED_EDGE ( 'NONE', *, *, #39, .F. ) ;
#151 = ORIENTED_EDGE ( 'NONE', *, *, #48, .T. ) ;
#152 = ORIENTED_EDGE ( 'NONE', *, *, #37, .T. ) ;
#153 = ORIENTED_EDGE ( 'NONE', *, *, #41, .T. ) ;
#154 = LINE ( 'NONE', #155, #205 ) ;
#155 = CARTESIAN_POINT ( 'NONE',  ( 0.0000000000000000000, 0.0000000000000000000, 0.0000000000000000000 ) ) ;
#156 = DIRECTION ( 'NONE',  ( -0.0000000000000000000, -0.0000000000000000000, 1.000000000000000000 ) ) ;
#157 = PLANE ( 'NONE',  #80 ) ;
#158 = LINE ( 'NONE', #159, #206 ) ;
#159 = CARTESIAN_POINT ( 'NONE',  ( 0.0000000000000000000, 1.000000000000000000, 0.0000000000000000000 ) ) ;
#160 = DIRECTION ( 'NONE',  ( -0.0000000000000000000, -0.0000000000000000000, 1.000000000000000000 ) ) ;
#161 = LINE ( 'NONE', #162, #207 ) ;
#162 = CARTESIAN_POINT ( 'NONE',  ( 1.999999999999999300, 0.0000000000000000000, -2.000000000000000000 ) ) ;
#163 = DIRECTION ( 'NONE',  ( -2.731847993664263200E-016, -0.0000000000000000000, -1.000000000000000000 ) ) ;
#164 = LINE ( 'NONE', #165, #208 ) ;
#165 = CARTESIAN_POINT ( 'NONE',  ( 2.000000000000000000, 1.000000000000000000, -1.224646799147353200E-016 ) ) ;
#166 = DIRECTION ( 'NONE',  ( -0.0000000000000000000, -1.000000000000000000, -0.0000000000000000000 ) ) ;
#167 = LINE ( 'NONE', #168, #209 ) ;
#168 = CARTESIAN_POINT ( 'NONE',  ( 1.999999999999999300, 1.000000000000000000, -2.000000000000000000 ) ) ;
#169 = DIRECTION ( 'NONE',  ( -2.731847993664263200E-016, -0.0000000000000000000, -1.000000000000000000 ) ) ;
#170 = LINE ( 'NONE', #171, #210 ) ;
#171 = CARTESIAN_POINT ( 'NONE',  ( 2.000000000000000000, 0.0000000000000000000, -1.224646799147353200E-016 ) ) ;
#172 = DIRECTION ( 'NONE',  ( 1.000000000000000000, -0.0000000000000000000, -6.123233995736766000E-017 ) ) ;
#173 = LINE ( 'NONE', #98, #79 ) ;
#174 = PRODUCT_DEFINITION_SHAPE ( 'NONE', 'NONE',  #33 ) ;
#175 = MANIFOLD_SOLID_BREP ( 'Boss-Extrude1', #203 ) ;
#176 = PRODUCT_DEFINITION_CONTEXT ( 'detailed design', #89, 'design' ) ;
#177 = FACE_OUTER_BOUND ( 'NONE', #61, .T. ) ;
#178 = PRESENTATION_LAYER_ASSIGNMENT (  '', '', ( #94 ) ) ;
#179 = AXIS2_PLACEMENT_3D ( 'NONE', #119, #120, #121 ) ;
#180 = FACE_OUTER_BOUND ( 'NONE', #59, .T. ) ;
#181 = FACE_OUTER_BOUND ( 'NONE', #62, .T. ) ;
#182 = MECHANICAL_DESIGN_GEOMETRIC_PRESENTATION_REPRESENTATION (  '', ( #94 ), #187 ) ;
#183 = UNCERTAINTY_MEASURE_WITH_UNIT (LENGTH_MEASURE( 1.000000000000000100E-005 ), #200, 'distance_accuracy_value', 'NONE');
#184 = UNCERTAINTY_MEASURE_WITH_UNIT (LENGTH_MEASURE( 1.000000000000000100E-005 ), #28, 'distance_accuracy_value', 'NONE');
#185 = ADVANCED_BREP_SHAPE_REPRESENTATION ( 'Q1000PN50', ( #175, #86 ), #188 ) ;
#186 = UNCERTAINTY_MEASURE_WITH_UNIT (LENGTH_MEASURE( 1.000000000000000100E-005 ), #190, 'distance_accuracy_value', 'NONE');
#187 =( GEOMETRIC_REPRESENTATION_CONTEXT ( 3 ) GLOBAL_UNCERTAINTY_ASSIGNED_CONTEXT ( ( #184 ) ) GLOBAL_UNIT_ASSIGNED_CONTEXT ( ( #28, #29, #30 ) ) REPRESENTATION_CONTEXT ( 'NONE', 'WORKASPACE' ) );
#188 =( GEOMETRIC_REPRESENTATION_CONTEXT ( 3 ) GLOBAL_UNCERTAINTY_ASSIGNED_CONTEXT ( ( #186 ) ) GLOBAL_UNIT_ASSIGNED_CONTEXT ( ( #190, #191, #192 ) ) REPRESENTATION_CONTEXT ( 'NONE', 'WORKASPACE' ) );
#189 =( GEOMETRIC_REPRESENTATION_CONTEXT ( 3 ) GLOBAL_UNCERTAINTY_ASSIGNED_CONTEXT ( ( #183 ) ) GLOBAL_UNIT_ASSIGNED_CONTEXT ( ( #200, #201, #202 ) ) REPRESENTATION_CONTEXT ( 'NONE', 'WORKASPACE' ) );
#190 =( CONVERSION_BASED_UNIT ( 'INCH', #81 ) LENGTH_UNIT ( ) NAMED_UNIT ( #137 ) );
#191 =( NAMED_UNIT ( * ) PLANE_ANGLE_UNIT ( ) SI_UNIT ( $, .RADIAN. ) );
#192 =( NAMED_UNIT ( * ) SI_UNIT ( $, .STERADIAN. ) SOLID_ANGLE_UNIT ( ) );
#193 = FILL_AREA_STYLE_COLOUR ( '', #34 ) ;
#194 = FILL_AREA_STYLE ('',( #193 ) ) ;
#195 = SURFACE_STYLE_FILL_AREA ( #194 ) ;
#196 = SURFACE_SIDE_STYLE ('',( #195 ) ) ;
#197 = SURFACE_STYLE_USAGE ( .BOTH. , #196 ) ;
#198 = PRESENTATION_STYLE_ASSIGNMENT (( #197 ) ) ;
#199 =( LENGTH_UNIT ( ) NAMED_UNIT ( * ) SI_UNIT ( $, .METRE. ) );
#200 =( CONVERSION_BASED_UNIT ( 'INCH', #85 ) LENGTH_UNIT ( ) NAMED_UNIT ( #135 ) );
#201 =( NAMED_UNIT ( * ) PLANE_ANGLE_UNIT ( ) SI_UNIT ( $, .RADIAN. ) );
#202 =( NAMED_UNIT ( * ) SI_UNIT ( $, .STERADIAN. ) SOLID_ANGLE_UNIT ( ) );
#203 = CLOSED_SHELL ( 'NONE', ( #49, #50, #51, #52, #54, #53 ) ) ;
#204 = FACE_OUTER_BOUND ( 'NONE', #60, .T. ) ;
#205 = VECTOR ( 'NONE', #156, 39.37007874015748100 ) ;
#206 = VECTOR ( 'NONE', #160, 39.37007874015748100 ) ;
#207 = VECTOR ( 'NONE', #163, 39.37007874015748100 ) ;
#208 = VECTOR ( 'NONE', #166, 39.37007874015748100 ) ;
#209 = VECTOR ( 'NONE', #169, 39.37007874015748100 ) ;
#210 = VECTOR ( 'NONE', #172, 39.37007874015748100 ) ;
#211 = VERTEX_POINT ( 'NONE', #31 ) ;
ENDSEC;
END-ISO-10303-21;
