ISO-10303-21;
HEADER;
FILE_DESCRIPTION (( 'STEP AP214' ),
    '1' );
FILE_NAME ('Q125D.step',
    '2012-04-20T21:03:03',
    ( '' ),
    ( '' ),
    'SwSTEP 2.0',
    'SolidWorks 2012',
    '' );
FILE_SCHEMA (( 'AUTOMOTIVE_DESIGN' ));
ENDSEC;

DATA;
#1 = LENGTH_MEASURE_WITH_UNIT ( LENGTH_MEASURE( 0.02539999999999999900 ), #147 );
#2 = EDGE_CURVE ( 'NONE', #90, #85, #103, .T. ) ;
#3 = COLOUR_RGB ( '',0.5686274509803921400, 0.5686274509803921400, 0.5882352941176470800 ) ;
#4 = EDGE_CURVE ( 'NONE', #91, #155, #107, .T. ) ;
#5 = PRODUCT_RELATED_PRODUCT_CATEGORY ( 'part', '', ( #77 ) ) ;
#6 = PRODUCT_DEFINITION ( 'UNKNOWN', '', #60, #116 ) ;
#7 = COLOUR_RGB ( '',0.5686274509803921400, 0.5686274509803921400, 0.5882352941176470800 ) ;
#8 = EDGE_CURVE ( 'NONE', #86, #88, #110, .T. ) ;
#9 = EDGE_CURVE ( 'NONE', #87, #86, #113, .T. ) ;
#10 = EDGE_CURVE ( 'NONE', #87, #89, #166, .T. ) ;
#11 = EDGE_CURVE ( 'NONE', #91, #90, #169, .T. ) ;
#12 = EDGE_CURVE ( 'NONE', #88, #90, #172, .T. ) ;
#13 = EDGE_CURVE ( 'NONE', #85, #86, #175, .T. ) ;
#14 = EDGE_CURVE ( 'NONE', #89, #91, #178, .T. ) ;
#15 = EDGE_CURVE ( 'NONE', #155, #85, #181, .T. ) ;
#16 = EDGE_CURVE ( 'NONE', #155, #87, #184, .T. ) ;
#17 = EDGE_CURVE ( 'NONE', #89, #88, #187, .T. ) ;
#18 = ADVANCED_FACE ( 'NONE', ( #207 ), #106, .F. ) ;
#19 = ADVANCED_FACE ( 'NONE', ( #46 ), #193, .F. ) ;
#20 = ADVANCED_FACE ( 'NONE', ( #49 ), #197, .F. ) ;
#21 = ADVANCED_FACE ( 'NONE', ( #50 ), #201, .F. ) ;
#22 = ADVANCED_FACE ( 'NONE', ( #39 ), #126, .T. ) ;
#23 = ADVANCED_FACE ( 'NONE', ( #38 ), #130, .F. ) ;
#24 = STYLED_ITEM ( 'NONE', ( #146 ), #117 ) ;
#25 = PRESENTATION_LAYER_ASSIGNMENT (  '', '', ( #24 ) ) ;
#26 = AXIS2_PLACEMENT_3D ( 'NONE', #131, #132, #133 ) ;
#27 =( GEOMETRIC_REPRESENTATION_CONTEXT ( 3 ) GLOBAL_UNCERTAINTY_ASSIGNED_CONTEXT ( ( #204 ) ) GLOBAL_UNIT_ASSIGNED_CONTEXT ( ( #148, #149, #150 ) ) REPRESENTATION_CONTEXT ( 'NONE', 'WORKASPACE' ) );
#28 =( GEOMETRIC_REPRESENTATION_CONTEXT ( 3 ) GLOBAL_UNCERTAINTY_ASSIGNED_CONTEXT ( ( #203 ) ) GLOBAL_UNIT_ASSIGNED_CONTEXT ( ( #63, #64, #65 ) ) REPRESENTATION_CONTEXT ( 'NONE', 'WORKASPACE' ) );
#29 =( GEOMETRIC_REPRESENTATION_CONTEXT ( 3 ) GLOBAL_UNCERTAINTY_ASSIGNED_CONTEXT ( ( #202 ) ) GLOBAL_UNIT_ASSIGNED_CONTEXT ( ( #75, #30, #31 ) ) REPRESENTATION_CONTEXT ( 'NONE', 'WORKASPACE' ) );
#30 =( NAMED_UNIT ( * ) PLANE_ANGLE_UNIT ( ) SI_UNIT ( $, .RADIAN. ) );
#31 =( NAMED_UNIT ( * ) SI_UNIT ( $, .STERADIAN. ) SOLID_ANGLE_UNIT ( ) );
#32 = CARTESIAN_POINT ( 'NONE',  ( 0.0000000000000000000, 0.0000000000000000000, 0.0000000000000000000 ) ) ;
#33 = DIRECTION ( 'NONE',  ( 0.0000000000000000000, 0.0000000000000000000, 1.000000000000000000 ) ) ;
#34 = DIRECTION ( 'NONE',  ( 1.000000000000000000, 0.0000000000000000000, 0.0000000000000000000 ) ) ;
#35 = SHAPE_DEFINITION_REPRESENTATION ( #118, #205 ) ;
#36 = APPLICATION_PROTOCOL_DEFINITION ( 'draft international standard', 'automotive_design', 1998, #52 ) ;
#37 = AXIS2_PLACEMENT_3D ( 'NONE', #123, #124, #125 ) ;
#38 = FACE_OUTER_BOUND ( 'NONE', #92, .T. ) ;
#39 = FACE_OUTER_BOUND ( 'NONE', #93, .T. ) ;
#40 = VECTOR ( 'NONE', #183, 39.37007874015748100 ) ;
#41 = VECTOR ( 'NONE', #180, 39.37007874015748100 ) ;
#42 = VECTOR ( 'NONE', #189, 39.37007874015748100 ) ;
#43 = VECTOR ( 'NONE', #186, 39.37007874015748100 ) ;
#44 = AXIS2_PLACEMENT_3D ( 'NONE', #190, #191, #192 ) ;
#45 = MECHANICAL_DESIGN_GEOMETRIC_PRESENTATION_REPRESENTATION (  '', ( #24 ), #27 ) ;
#46 = FACE_OUTER_BOUND ( 'NONE', #151, .T. ) ;
#47 = AXIS2_PLACEMENT_3D ( 'NONE', #127, #128, #129 ) ;
#48 = AXIS2_PLACEMENT_3D ( 'NONE', #194, #195, #196 ) ;
#49 = FACE_OUTER_BOUND ( 'NONE', #152, .T. ) ;
#50 = FACE_OUTER_BOUND ( 'NONE', #154, .T. ) ;
#51 = AXIS2_PLACEMENT_3D ( 'NONE', #198, #199, #200 ) ;
#52 = APPLICATION_CONTEXT ( 'automotive_design' ) ;
#53 = APPLICATION_CONTEXT ( 'automotive_design' ) ;
#54 = LENGTH_MEASURE_WITH_UNIT ( LENGTH_MEASURE( 0.02539999999999999900 ), #62 );
#55 = STYLED_ITEM ( 'NONE', ( #73 ), #205 ) ;
#56 = PRESENTATION_LAYER_ASSIGNMENT (  '', '', ( #55 ) ) ;
#57 = MECHANICAL_DESIGN_GEOMETRIC_PRESENTATION_REPRESENTATION (  '', ( #55 ), #29 ) ;
#58 = LENGTH_MEASURE_WITH_UNIT ( LENGTH_MEASURE( 0.02539999999999999900 ), #74 );
#59 = AXIS2_PLACEMENT_3D ( 'NONE', #32, #33, #34 ) ;
#60 = PRODUCT_DEFINITION_FORMATION_WITH_SPECIFIED_SOURCE ( 'ANY', '', #77, .NOT_KNOWN. ) ;
#61 = CARTESIAN_POINT ( 'NONE',  ( 0.0000000000000000000, 0.1250000000000000000, 0.0000000000000000000 ) ) ;
#62 =( LENGTH_UNIT ( ) NAMED_UNIT ( * ) SI_UNIT ( $, .METRE. ) );
#63 =( CONVERSION_BASED_UNIT ( 'INCH', #54 ) LENGTH_UNIT ( ) NAMED_UNIT ( #78 ) );
#64 =( NAMED_UNIT ( * ) PLANE_ANGLE_UNIT ( ) SI_UNIT ( $, .RADIAN. ) );
#65 =( NAMED_UNIT ( * ) SI_UNIT ( $, .STERADIAN. ) SOLID_ANGLE_UNIT ( ) );
#66 = APPLICATION_PROTOCOL_DEFINITION ( 'draft international standard', 'automotive_design', 1998, #53 ) ;
#67 = PRODUCT_CONTEXT ( 'NONE', #52, 'mechanical' ) ;
#68 = FILL_AREA_STYLE_COLOUR ( '', #3 ) ;
#69 = FILL_AREA_STYLE ('',( #68 ) ) ;
#70 = SURFACE_STYLE_FILL_AREA ( #69 ) ;
#71 = SURFACE_SIDE_STYLE ('',( #70 ) ) ;
#72 = SURFACE_STYLE_USAGE ( .BOTH. , #71 ) ;
#73 = PRESENTATION_STYLE_ASSIGNMENT (( #72 ) ) ;
#74 =( LENGTH_UNIT ( ) NAMED_UNIT ( * ) SI_UNIT ( $, .METRE. ) );
#75 =( CONVERSION_BASED_UNIT ( 'INCH', #58 ) LENGTH_UNIT ( ) NAMED_UNIT ( #79 ) );
#76 = DIMENSIONAL_EXPONENTS ( 1.000000000000000000, 0.0000000000000000000, 0.0000000000000000000, 0.0000000000000000000, 0.0000000000000000000, 0.0000000000000000000, 0.0000000000000000000 ) ;
#77 = PRODUCT ( 'Q125D', 'Q125D', '', ( #67 ) ) ;
#78 = DIMENSIONAL_EXPONENTS ( 1.000000000000000000, 0.0000000000000000000, 0.0000000000000000000, 0.0000000000000000000, 0.0000000000000000000, 0.0000000000000000000, 0.0000000000000000000 ) ;
#79 = DIMENSIONAL_EXPONENTS ( 1.000000000000000000, 0.0000000000000000000, 0.0000000000000000000, 0.0000000000000000000, 0.0000000000000000000, 0.0000000000000000000, 0.0000000000000000000 ) ;
#80 = ORIENTED_EDGE ( 'NONE', *, *, #12, .T. ) ;
#81 = ORIENTED_EDGE ( 'NONE', *, *, #16, .F. ) ;
#82 = ORIENTED_EDGE ( 'NONE', *, *, #9, .T. ) ;
#83 = ORIENTED_EDGE ( 'NONE', *, *, #17, .F. ) ;
#84 = ORIENTED_EDGE ( 'NONE', *, *, #10, .F. ) ;
#85 = VERTEX_POINT ( 'NONE', #134 ) ;
#86 = VERTEX_POINT ( 'NONE', #135 ) ;
#87 = VERTEX_POINT ( 'NONE', #136 ) ;
#88 = VERTEX_POINT ( 'NONE', #137 ) ;
#89 = VERTEX_POINT ( 'NONE', #138 ) ;
#90 = VERTEX_POINT ( 'NONE', #139 ) ;
#91 = VERTEX_POINT ( 'NONE', #140 ) ;
#92 = EDGE_LOOP ( 'NONE', ( #95, #94, #102, #97 ) ) ;
#93 = EDGE_LOOP ( 'NONE', ( #100, #157, #156, #101 ) ) ;
#94 = ORIENTED_EDGE ( 'NONE', *, *, #10, .T. ) ;
#95 = ORIENTED_EDGE ( 'NONE', *, *, #16, .T. ) ;
#96 = ORIENTED_EDGE ( 'NONE', *, *, #2, .T. ) ;
#97 = ORIENTED_EDGE ( 'NONE', *, *, #4, .T. ) ;
#98 = ORIENTED_EDGE ( 'NONE', *, *, #11, .T. ) ;
#99 = ORIENTED_EDGE ( 'NONE', *, *, #15, .F. ) ;
#100 = ORIENTED_EDGE ( 'NONE', *, *, #13, .F. ) ;
#101 = ORIENTED_EDGE ( 'NONE', *, *, #8, .F. ) ;
#102 = ORIENTED_EDGE ( 'NONE', *, *, #14, .T. ) ;
#103 = LINE ( 'NONE', #104, #208 ) ;
#104 = CARTESIAN_POINT ( 'NONE',  ( 0.0000000000000000000, 0.0000000000000000000, 0.0000000000000000000 ) ) ;
#105 = DIRECTION ( 'NONE',  ( -0.0000000000000000000, -0.0000000000000000000, 1.000000000000000000 ) ) ;
#106 = PLANE ( 'NONE',  #44 ) ;
#107 = LINE ( 'NONE', #108, #209 ) ;
#108 = CARTESIAN_POINT ( 'NONE',  ( 0.0000000000000000000, 0.1250000000000000000, 0.0000000000000000000 ) ) ;
#109 = DIRECTION ( 'NONE',  ( -0.0000000000000000000, -0.0000000000000000000, 1.000000000000000000 ) ) ;
#110 = LINE ( 'NONE', #111, #210 ) ;
#111 = CARTESIAN_POINT ( 'NONE',  ( 0.4999999999999998300, 0.0000000000000000000, -0.5000000000000000000 ) ) ;
#112 = DIRECTION ( 'NONE',  ( -2.731847993664263200E-016, -0.0000000000000000000, -1.000000000000000000 ) ) ;
#113 = LINE ( 'NONE', #114, #211 ) ;
#114 = CARTESIAN_POINT ( 'NONE',  ( 0.5000000000000000000, 0.1250000000000000000, -1.530808498934190900E-017 ) ) ;
#115 = DIRECTION ( 'NONE',  ( -0.0000000000000000000, -1.000000000000000000, -0.0000000000000000000 ) ) ;
#116 = PRODUCT_DEFINITION_CONTEXT ( 'detailed design', #53, 'design' ) ;
#117 = MANIFOLD_SOLID_BREP ( 'Boss-Extrude1', #206 ) ;
#118 = PRODUCT_DEFINITION_SHAPE ( 'NONE', 'NONE',  #6 ) ;
#119 = VECTOR ( 'NONE', #174, 39.37007874015748100 ) ;
#120 = VECTOR ( 'NONE', #168, 39.37007874015748100 ) ;
#121 = VECTOR ( 'NONE', #171, 39.37007874015748100 ) ;
#122 = VECTOR ( 'NONE', #177, 39.37007874015748100 ) ;
#123 = CARTESIAN_POINT ( 'NONE',  ( 0.0000000000000000000, 0.1250000000000000000, 0.0000000000000000000 ) ) ;
#124 = DIRECTION ( 'NONE',  ( 1.000000000000000000, -0.0000000000000000000, 0.0000000000000000000 ) ) ;
#125 = DIRECTION ( 'NONE',  ( 0.0000000000000000000, 0.0000000000000000000, -1.000000000000000000 ) ) ;
#126 = PLANE ( 'NONE',  #47 ) ;
#127 = CARTESIAN_POINT ( 'NONE',  ( 0.0000000000000000000, 0.0000000000000000000, 0.0000000000000000000 ) ) ;
#128 = DIRECTION ( 'NONE',  ( 0.0000000000000000000, -1.000000000000000000, -0.0000000000000000000 ) ) ;
#129 = DIRECTION ( 'NONE',  ( 0.0000000000000000000, 0.0000000000000000000, -1.000000000000000000 ) ) ;
#130 = PLANE ( 'NONE',  #26 ) ;
#131 = CARTESIAN_POINT ( 'NONE',  ( 0.0000000000000000000, 0.1250000000000000000, 0.0000000000000000000 ) ) ;
#132 = DIRECTION ( 'NONE',  ( 0.0000000000000000000, -1.000000000000000000, -0.0000000000000000000 ) ) ;
#133 = DIRECTION ( 'NONE',  ( 0.0000000000000000000, 0.0000000000000000000, -1.000000000000000000 ) ) ;
#134 = CARTESIAN_POINT ( 'NONE',  ( 0.0000000000000000000, 0.0000000000000000000, 0.0000000000000000000 ) ) ;
#135 = CARTESIAN_POINT ( 'NONE',  ( 0.5000000000000000000, 0.0000000000000000000, -1.530808498934190900E-017 ) ) ;
#136 = CARTESIAN_POINT ( 'NONE',  ( 0.5000000000000000000, 0.1250000000000000000, -1.530808498934190900E-017 ) ) ;
#137 = CARTESIAN_POINT ( 'NONE',  ( 0.4999999999999998300, 0.0000000000000000000, -0.5000000000000000000 ) ) ;
#138 = CARTESIAN_POINT ( 'NONE',  ( 0.4999999999999998300, 0.1250000000000000000, -0.5000000000000000000 ) ) ;
#139 = CARTESIAN_POINT ( 'NONE',  ( 0.0000000000000000000, 0.0000000000000000000, -0.5000000000000000000 ) ) ;
#140 = CARTESIAN_POINT ( 'NONE',  ( 0.0000000000000000000, 0.1250000000000000000, -0.5000000000000000000 ) ) ;
#141 = FILL_AREA_STYLE_COLOUR ( '', #7 ) ;
#142 = FILL_AREA_STYLE ('',( #141 ) ) ;
#143 = SURFACE_STYLE_FILL_AREA ( #142 ) ;
#144 = SURFACE_SIDE_STYLE ('',( #143 ) ) ;
#145 = SURFACE_STYLE_USAGE ( .BOTH. , #144 ) ;
#146 = PRESENTATION_STYLE_ASSIGNMENT (( #145 ) ) ;
#147 =( LENGTH_UNIT ( ) NAMED_UNIT ( * ) SI_UNIT ( $, .METRE. ) );
#148 =( CONVERSION_BASED_UNIT ( 'INCH', #1 ) LENGTH_UNIT ( ) NAMED_UNIT ( #76 ) );
#149 =( NAMED_UNIT ( * ) PLANE_ANGLE_UNIT ( ) SI_UNIT ( $, .RADIAN. ) );
#150 =( NAMED_UNIT ( * ) SI_UNIT ( $, .STERADIAN. ) SOLID_ANGLE_UNIT ( ) );
#151 = EDGE_LOOP ( 'NONE', ( #159, #83, #84, #82 ) ) ;
#152 = EDGE_LOOP ( 'NONE', ( #80, #164, #165, #162 ) ) ;
#153 = EDGE_LOOP ( 'NONE', ( #161, #163, #81, #160 ) ) ;
#154 = EDGE_LOOP ( 'NONE', ( #96, #99, #158, #98 ) ) ;
#155 = VERTEX_POINT ( 'NONE', #61 ) ;
#156 = ORIENTED_EDGE ( 'NONE', *, *, #12, .F. ) ;
#157 = ORIENTED_EDGE ( 'NONE', *, *, #2, .F. ) ;
#158 = ORIENTED_EDGE ( 'NONE', *, *, #4, .F. ) ;
#159 = ORIENTED_EDGE ( 'NONE', *, *, #8, .T. ) ;
#160 = ORIENTED_EDGE ( 'NONE', *, *, #15, .T. ) ;
#161 = ORIENTED_EDGE ( 'NONE', *, *, #13, .T. ) ;
#162 = ORIENTED_EDGE ( 'NONE', *, *, #17, .T. ) ;
#163 = ORIENTED_EDGE ( 'NONE', *, *, #9, .F. ) ;
#164 = ORIENTED_EDGE ( 'NONE', *, *, #11, .F. ) ;
#165 = ORIENTED_EDGE ( 'NONE', *, *, #14, .F. ) ;
#166 = LINE ( 'NONE', #167, #120 ) ;
#167 = CARTESIAN_POINT ( 'NONE',  ( 0.4999999999999998300, 0.1250000000000000000, -0.5000000000000000000 ) ) ;
#168 = DIRECTION ( 'NONE',  ( -2.731847993664263200E-016, -0.0000000000000000000, -1.000000000000000000 ) ) ;
#169 = LINE ( 'NONE', #170, #121 ) ;
#170 = CARTESIAN_POINT ( 'NONE',  ( 0.0000000000000000000, 0.1250000000000000000, -0.5000000000000000000 ) ) ;
#171 = DIRECTION ( 'NONE',  ( -0.0000000000000000000, -1.000000000000000000, -0.0000000000000000000 ) ) ;
#172 = LINE ( 'NONE', #173, #119 ) ;
#173 = CARTESIAN_POINT ( 'NONE',  ( 0.0000000000000000000, 0.0000000000000000000, -0.5000000000000000000 ) ) ;
#174 = DIRECTION ( 'NONE',  ( -1.000000000000000000, -0.0000000000000000000, -0.0000000000000000000 ) ) ;
#175 = LINE ( 'NONE', #176, #122 ) ;
#176 = CARTESIAN_POINT ( 'NONE',  ( 0.5000000000000000000, 0.0000000000000000000, -1.530808498934190900E-017 ) ) ;
#177 = DIRECTION ( 'NONE',  ( 1.000000000000000000, -0.0000000000000000000, -3.061616997868381800E-017 ) ) ;
#178 = LINE ( 'NONE', #179, #41 ) ;
#179 = CARTESIAN_POINT ( 'NONE',  ( 0.0000000000000000000, 0.1250000000000000000, -0.5000000000000000000 ) ) ;
#180 = DIRECTION ( 'NONE',  ( -1.000000000000000000, -0.0000000000000000000, -0.0000000000000000000 ) ) ;
#181 = LINE ( 'NONE', #182, #40 ) ;
#182 = CARTESIAN_POINT ( 'NONE',  ( 0.0000000000000000000, 0.1250000000000000000, 0.0000000000000000000 ) ) ;
#183 = DIRECTION ( 'NONE',  ( -0.0000000000000000000, -1.000000000000000000, -0.0000000000000000000 ) ) ;
#184 = LINE ( 'NONE', #185, #43 ) ;
#185 = CARTESIAN_POINT ( 'NONE',  ( 0.5000000000000000000, 0.1250000000000000000, -1.530808498934190900E-017 ) ) ;
#186 = DIRECTION ( 'NONE',  ( 1.000000000000000000, -0.0000000000000000000, -3.061616997868381800E-017 ) ) ;
#187 = LINE ( 'NONE', #188, #42 ) ;
#188 = CARTESIAN_POINT ( 'NONE',  ( 0.4999999999999998300, 0.1250000000000000000, -0.5000000000000000000 ) ) ;
#189 = DIRECTION ( 'NONE',  ( -0.0000000000000000000, -1.000000000000000000, -0.0000000000000000000 ) ) ;
#190 = CARTESIAN_POINT ( 'NONE',  ( 0.5000000000000000000, 0.1250000000000000000, -1.530808498934190900E-017 ) ) ;
#191 = DIRECTION ( 'NONE',  ( -3.061616997868381800E-017, 0.0000000000000000000, -1.000000000000000000 ) ) ;
#192 = DIRECTION ( 'NONE',  ( -1.000000000000000000, 0.0000000000000000000, 3.061616997868381800E-017 ) ) ;
#193 = PLANE ( 'NONE',  #48 ) ;
#194 = CARTESIAN_POINT ( 'NONE',  ( 0.4999999999999998300, 0.1250000000000000000, -0.5000000000000000000 ) ) ;
#195 = DIRECTION ( 'NONE',  ( -1.000000000000000000, 0.0000000000000000000, 2.731847993664263200E-016 ) ) ;
#196 = DIRECTION ( 'NONE',  ( 2.731847993664263200E-016, 0.0000000000000000000, 1.000000000000000000 ) ) ;
#197 = PLANE ( 'NONE',  #51 ) ;
#198 = CARTESIAN_POINT ( 'NONE',  ( 0.0000000000000000000, 0.1250000000000000000, -0.5000000000000000000 ) ) ;
#199 = DIRECTION ( 'NONE',  ( 0.0000000000000000000, 0.0000000000000000000, 1.000000000000000000 ) ) ;
#200 = DIRECTION ( 'NONE',  ( 1.000000000000000000, 0.0000000000000000000, -0.0000000000000000000 ) ) ;
#201 = PLANE ( 'NONE',  #37 ) ;
#202 = UNCERTAINTY_MEASURE_WITH_UNIT (LENGTH_MEASURE( 1.000000000000000100E-005 ), #75, 'distance_accuracy_value', 'NONE');
#203 = UNCERTAINTY_MEASURE_WITH_UNIT (LENGTH_MEASURE( 1.000000000000000100E-005 ), #63, 'distance_accuracy_value', 'NONE');
#204 = UNCERTAINTY_MEASURE_WITH_UNIT (LENGTH_MEASURE( 1.000000000000000100E-005 ), #148, 'distance_accuracy_value', 'NONE');
#205 = ADVANCED_BREP_SHAPE_REPRESENTATION ( 'Q125D', ( #117, #59 ), #28 ) ;
#206 = CLOSED_SHELL ( 'NONE', ( #18, #19, #20, #21, #23, #22 ) ) ;
#207 = FACE_OUTER_BOUND ( 'NONE', #153, .T. ) ;
#208 = VECTOR ( 'NONE', #105, 39.37007874015748100 ) ;
#209 = VECTOR ( 'NONE', #109, 39.37007874015748100 ) ;
#210 = VECTOR ( 'NONE', #112, 39.37007874015748100 ) ;
#211 = VECTOR ( 'NONE', #115, 39.37007874015748100 ) ;
ENDSEC;
END-ISO-10303-21;
