ISO-10303-21;
HEADER;
FILE_DESCRIPTION (( 'STEP AP214' ),
    '1' );
FILE_NAME ('Q125E.step',
    '2012-04-20T21:03:05',
    ( '' ),
    ( '' ),
    'SwSTEP 2.0',
    'SolidWorks 2012',
    '' );
FILE_SCHEMA (( 'AUTOMOTIVE_DESIGN' ));
ENDSEC;

DATA;
#1 = STYLED_ITEM ( 'NONE', ( #98 ), #122 ) ;
#2 = AXIS2_PLACEMENT_3D ( 'NONE', #82, #83, #84 ) ;
#3 = AXIS2_PLACEMENT_3D ( 'NONE', #163, #164, #165 ) ;
#4 = FACE_OUTER_BOUND ( 'NONE', #110, .T. ) ;
#5 = AXIS2_PLACEMENT_3D ( 'NONE', #90, #91, #92 ) ;
#6 = FACE_OUTER_BOUND ( 'NONE', #174, .T. ) ;
#7 = AXIS2_PLACEMENT_3D ( 'NONE', #86, #87, #88 ) ;
#8 = PRODUCT_RELATED_PRODUCT_CATEGORY ( 'part', '', ( #78 ) ) ;
#9 = PRODUCT_DEFINITION ( 'UNKNOWN', '', #77, #123 ) ;
#10 = COLOUR_RGB ( '',0.5686274509803921400, 0.5686274509803921400, 0.5882352941176470800 ) ;
#11 = COLOUR_RGB ( '',0.5686274509803921400, 0.5686274509803921400, 0.5882352941176470800 ) ;
#12 = EDGE_CURVE ( 'NONE', #175, #176, #196, .T. ) ;
#13 = EDGE_CURVE ( 'NONE', #176, #179, #200, .T. ) ;
#14 = EDGE_CURVE ( 'NONE', #177, #180, #203, .T. ) ;
#15 = EDGE_CURVE ( 'NONE', #182, #181, #206, .T. ) ;
#16 = EDGE_CURVE ( 'NONE', #180, #179, #131, .T. ) ;
#17 = EDGE_CURVE ( 'NONE', #179, #181, #134, .T. ) ;
#18 = EDGE_CURVE ( 'NONE', #178, #175, #137, .T. ) ;
#19 = EDGE_CURVE ( 'NONE', #178, #177, #140, .T. ) ;
#20 = EDGE_CURVE ( 'NONE', #180, #182, #143, .T. ) ;
#21 = EDGE_CURVE ( 'NONE', #177, #176, #146, .T. ) ;
#22 = EDGE_CURVE ( 'NONE', #181, #175, #149, .T. ) ;
#23 = EDGE_CURVE ( 'NONE', #182, #178, #152, .T. ) ;
#24 = ADVANCED_FACE ( 'NONE', ( #48 ), #199, .F. ) ;
#25 = ADVANCED_FACE ( 'NONE', ( #170 ), #158, .F. ) ;
#26 = ADVANCED_FACE ( 'NONE', ( #171 ), #162, .F. ) ;
#27 = ADVANCED_FACE ( 'NONE', ( #4 ), #166, .F. ) ;
#28 = ADVANCED_FACE ( 'NONE', ( #6 ), #85, .T. ) ;
#29 = ADVANCED_FACE ( 'NONE', ( #32 ), #89, .F. ) ;
#30 = MECHANICAL_DESIGN_GEOMETRIC_PRESENTATION_REPRESENTATION (  '', ( #1 ), #209 ) ;
#31 = PRESENTATION_LAYER_ASSIGNMENT (  '', '', ( #1 ) ) ;
#32 = FACE_OUTER_BOUND ( 'NONE', #173, .T. ) ;
#33 = VECTOR ( 'NONE', #145, 39.37007874015748100 ) ;
#34 = VECTOR ( 'NONE', #139, 39.37007874015748100 ) ;
#35 = VECTOR ( 'NONE', #142, 39.37007874015748100 ) ;
#36 = VECTOR ( 'NONE', #148, 39.37007874015748100 ) ;
#37 =( NAMED_UNIT ( * ) PLANE_ANGLE_UNIT ( ) SI_UNIT ( $, .RADIAN. ) );
#38 =( NAMED_UNIT ( * ) SI_UNIT ( $, .STERADIAN. ) SOLID_ANGLE_UNIT ( ) );
#39 = CARTESIAN_POINT ( 'NONE',  ( 0.0000000000000000000, 0.0000000000000000000, 0.0000000000000000000 ) ) ;
#40 = DIRECTION ( 'NONE',  ( 0.0000000000000000000, 0.0000000000000000000, 1.000000000000000000 ) ) ;
#41 = DIRECTION ( 'NONE',  ( 1.000000000000000000, 0.0000000000000000000, 0.0000000000000000000 ) ) ;
#42 = SHAPE_DEFINITION_REPRESENTATION ( #124, #125 ) ;
#43 = APPLICATION_PROTOCOL_DEFINITION ( 'draft international standard', 'automotive_design', 1998, #129 ) ;
#44 = PRODUCT_CONTEXT ( 'NONE', #129, 'mechanical' ) ;
#45 = APPLICATION_PROTOCOL_DEFINITION ( 'draft international standard', 'automotive_design', 1998, #130 ) ;
#46 = AXIS2_PLACEMENT_3D ( 'NONE', #159, #160, #161 ) ;
#47 = CLOSED_SHELL ( 'NONE', ( #24, #25, #26, #27, #29, #28 ) ) ;
#48 = FACE_OUTER_BOUND ( 'NONE', #109, .T. ) ;
#49 = VECTOR ( 'NONE', #198, 39.37007874015748100 ) ;
#50 = VECTOR ( 'NONE', #202, 39.37007874015748100 ) ;
#51 = VECTOR ( 'NONE', #205, 39.37007874015748100 ) ;
#52 = VECTOR ( 'NONE', #208, 39.37007874015748100 ) ;
#53 = VECTOR ( 'NONE', #133, 39.37007874015748100 ) ;
#54 = VECTOR ( 'NONE', #136, 39.37007874015748100 ) ;
#55 = CARTESIAN_POINT ( 'NONE',  ( 0.6249999999999997800, 0.0000000000000000000, -0.6250000000000000000 ) ) ;
#56 = CARTESIAN_POINT ( 'NONE',  ( 0.6249999999999997800, 0.1250000000000000000, -0.6250000000000000000 ) ) ;
#57 = CARTESIAN_POINT ( 'NONE',  ( 0.0000000000000000000, 0.0000000000000000000, -0.6250000000000000000 ) ) ;
#58 = CARTESIAN_POINT ( 'NONE',  ( 0.0000000000000000000, 0.1250000000000000000, -0.6250000000000000000 ) ) ;
#59 =( LENGTH_UNIT ( ) NAMED_UNIT ( * ) SI_UNIT ( $, .METRE. ) );
#60 =( CONVERSION_BASED_UNIT ( 'INCH', #71 ) LENGTH_UNIT ( ) NAMED_UNIT ( #79 ) );
#61 =( NAMED_UNIT ( * ) PLANE_ANGLE_UNIT ( ) SI_UNIT ( $, .RADIAN. ) );
#62 =( NAMED_UNIT ( * ) SI_UNIT ( $, .STERADIAN. ) SOLID_ANGLE_UNIT ( ) );
#63 = FILL_AREA_STYLE_COLOUR ( '', #11 ) ;
#64 = FILL_AREA_STYLE ('',( #63 ) ) ;
#65 = SURFACE_STYLE_FILL_AREA ( #64 ) ;
#66 = SURFACE_SIDE_STYLE ('',( #65 ) ) ;
#67 = SURFACE_STYLE_USAGE ( .BOTH. , #66 ) ;
#68 = PRESENTATION_STYLE_ASSIGNMENT (( #67 ) ) ;
#69 =( LENGTH_UNIT ( ) NAMED_UNIT ( * ) SI_UNIT ( $, .METRE. ) );
#70 =( CONVERSION_BASED_UNIT ( 'INCH', #75 ) LENGTH_UNIT ( ) NAMED_UNIT ( #80 ) );
#71 = LENGTH_MEASURE_WITH_UNIT ( LENGTH_MEASURE( 0.02539999999999999900 ), #59 );
#72 = STYLED_ITEM ( 'NONE', ( #68 ), #125 ) ;
#73 = PRESENTATION_LAYER_ASSIGNMENT (  '', '', ( #72 ) ) ;
#74 = MECHANICAL_DESIGN_GEOMETRIC_PRESENTATION_REPRESENTATION (  '', ( #72 ), #211 ) ;
#75 = LENGTH_MEASURE_WITH_UNIT ( LENGTH_MEASURE( 0.02539999999999999900 ), #69 );
#76 = AXIS2_PLACEMENT_3D ( 'NONE', #39, #40, #41 ) ;
#77 = PRODUCT_DEFINITION_FORMATION_WITH_SPECIFIED_SOURCE ( 'ANY', '', #78, .NOT_KNOWN. ) ;
#78 = PRODUCT ( 'Q125E', 'Q125E', '', ( #44 ) ) ;
#79 = DIMENSIONAL_EXPONENTS ( 1.000000000000000000, 0.0000000000000000000, 0.0000000000000000000, 0.0000000000000000000, 0.0000000000000000000, 0.0000000000000000000, 0.0000000000000000000 ) ;
#80 = DIMENSIONAL_EXPONENTS ( 1.000000000000000000, 0.0000000000000000000, 0.0000000000000000000, 0.0000000000000000000, 0.0000000000000000000, 0.0000000000000000000, 0.0000000000000000000 ) ;
#81 = DIMENSIONAL_EXPONENTS ( 1.000000000000000000, 0.0000000000000000000, 0.0000000000000000000, 0.0000000000000000000, 0.0000000000000000000, 0.0000000000000000000, 0.0000000000000000000 ) ;
#82 = CARTESIAN_POINT ( 'NONE',  ( 0.0000000000000000000, 0.1250000000000000000, 0.0000000000000000000 ) ) ;
#83 = DIRECTION ( 'NONE',  ( 1.000000000000000000, -0.0000000000000000000, 0.0000000000000000000 ) ) ;
#84 = DIRECTION ( 'NONE',  ( 0.0000000000000000000, 0.0000000000000000000, -1.000000000000000000 ) ) ;
#85 = PLANE ( 'NONE',  #7 ) ;
#86 = CARTESIAN_POINT ( 'NONE',  ( 0.0000000000000000000, 0.0000000000000000000, 0.0000000000000000000 ) ) ;
#87 = DIRECTION ( 'NONE',  ( 0.0000000000000000000, -1.000000000000000000, -0.0000000000000000000 ) ) ;
#88 = DIRECTION ( 'NONE',  ( 0.0000000000000000000, 0.0000000000000000000, -1.000000000000000000 ) ) ;
#89 = PLANE ( 'NONE',  #5 ) ;
#90 = CARTESIAN_POINT ( 'NONE',  ( 0.0000000000000000000, 0.1250000000000000000, 0.0000000000000000000 ) ) ;
#91 = DIRECTION ( 'NONE',  ( 0.0000000000000000000, -1.000000000000000000, -0.0000000000000000000 ) ) ;
#92 = DIRECTION ( 'NONE',  ( 0.0000000000000000000, 0.0000000000000000000, -1.000000000000000000 ) ) ;
#93 = FILL_AREA_STYLE_COLOUR ( '', #10 ) ;
#94 = FILL_AREA_STYLE ('',( #93 ) ) ;
#95 = SURFACE_STYLE_FILL_AREA ( #94 ) ;
#96 = SURFACE_SIDE_STYLE ('',( #95 ) ) ;
#97 = SURFACE_STYLE_USAGE ( .BOTH. , #96 ) ;
#98 = PRESENTATION_STYLE_ASSIGNMENT (( #97 ) ) ;
#99 =( LENGTH_UNIT ( ) NAMED_UNIT ( * ) SI_UNIT ( $, .METRE. ) );
#100 =( CONVERSION_BASED_UNIT ( 'INCH', #172 ) LENGTH_UNIT ( ) NAMED_UNIT ( #81 ) );
#101 =( NAMED_UNIT ( * ) PLANE_ANGLE_UNIT ( ) SI_UNIT ( $, .RADIAN. ) );
#102 =( NAMED_UNIT ( * ) SI_UNIT ( $, .STERADIAN. ) SOLID_ANGLE_UNIT ( ) );
#103 = CARTESIAN_POINT ( 'NONE',  ( 0.0000000000000000000, 0.0000000000000000000, 0.0000000000000000000 ) ) ;
#104 = CARTESIAN_POINT ( 'NONE',  ( 0.6250000000000000000, 0.0000000000000000000, -1.530808498934191500E-017 ) ) ;
#105 = CARTESIAN_POINT ( 'NONE',  ( 0.6250000000000000000, 0.1250000000000000000, -1.530808498934191500E-017 ) ) ;
#106 = CARTESIAN_POINT ( 'NONE',  ( 0.0000000000000000000, 0.1250000000000000000, 0.0000000000000000000 ) ) ;
#107 = EDGE_LOOP ( 'NONE', ( #183, #195, #193, #194 ) ) ;
#108 = EDGE_LOOP ( 'NONE', ( #192, #189, #190, #187 ) ) ;
#109 = EDGE_LOOP ( 'NONE', ( #191, #186, #188, #185 ) ) ;
#110 = EDGE_LOOP ( 'NONE', ( #116, #118, #184, #120 ) ) ;
#111 = ORIENTED_EDGE ( 'NONE', *, *, #17, .F. ) ;
#112 = ORIENTED_EDGE ( 'NONE', *, *, #22, .F. ) ;
#113 = ORIENTED_EDGE ( 'NONE', *, *, #23, .T. ) ;
#114 = ORIENTED_EDGE ( 'NONE', *, *, #20, .T. ) ;
#115 = ORIENTED_EDGE ( 'NONE', *, *, #19, .T. ) ;
#116 = ORIENTED_EDGE ( 'NONE', *, *, #22, .T. ) ;
#117 = ORIENTED_EDGE ( 'NONE', *, *, #13, .F. ) ;
#118 = ORIENTED_EDGE ( 'NONE', *, *, #18, .F. ) ;
#119 = ORIENTED_EDGE ( 'NONE', *, *, #12, .F. ) ;
#120 = ORIENTED_EDGE ( 'NONE', *, *, #15, .T. ) ;
#121 = ORIENTED_EDGE ( 'NONE', *, *, #14, .T. ) ;
#122 = MANIFOLD_SOLID_BREP ( 'Boss-Extrude1', #47 ) ;
#123 = PRODUCT_DEFINITION_CONTEXT ( 'detailed design', #130, 'design' ) ;
#124 = PRODUCT_DEFINITION_SHAPE ( 'NONE', 'NONE',  #9 ) ;
#125 = ADVANCED_BREP_SHAPE_REPRESENTATION ( 'Q125E', ( #122, #76 ), #210 ) ;
#126 = UNCERTAINTY_MEASURE_WITH_UNIT (LENGTH_MEASURE( 1.000000000000000100E-005 ), #100, 'distance_accuracy_value', 'NONE');
#127 = UNCERTAINTY_MEASURE_WITH_UNIT (LENGTH_MEASURE( 1.000000000000000100E-005 ), #70, 'distance_accuracy_value', 'NONE');
#128 = UNCERTAINTY_MEASURE_WITH_UNIT (LENGTH_MEASURE( 1.000000000000000100E-005 ), #60, 'distance_accuracy_value', 'NONE');
#129 = APPLICATION_CONTEXT ( 'automotive_design' ) ;
#130 = APPLICATION_CONTEXT ( 'automotive_design' ) ;
#131 = LINE ( 'NONE', #132, #53 ) ;
#132 = CARTESIAN_POINT ( 'NONE',  ( 0.6249999999999997800, 0.1250000000000000000, -0.6250000000000000000 ) ) ;
#133 = DIRECTION ( 'NONE',  ( -0.0000000000000000000, -1.000000000000000000, -0.0000000000000000000 ) ) ;
#134 = LINE ( 'NONE', #135, #54 ) ;
#135 = CARTESIAN_POINT ( 'NONE',  ( 0.0000000000000000000, 0.0000000000000000000, -0.6250000000000000000 ) ) ;
#136 = DIRECTION ( 'NONE',  ( -1.000000000000000000, -0.0000000000000000000, -0.0000000000000000000 ) ) ;
#137 = LINE ( 'NONE', #138, #34 ) ;
#138 = CARTESIAN_POINT ( 'NONE',  ( 0.0000000000000000000, 0.1250000000000000000, 0.0000000000000000000 ) ) ;
#139 = DIRECTION ( 'NONE',  ( -0.0000000000000000000, -1.000000000000000000, -0.0000000000000000000 ) ) ;
#140 = LINE ( 'NONE', #141, #35 ) ;
#141 = CARTESIAN_POINT ( 'NONE',  ( 0.6250000000000000000, 0.1250000000000000000, -1.530808498934191500E-017 ) ) ;
#142 = DIRECTION ( 'NONE',  ( 1.000000000000000000, -0.0000000000000000000, -2.449293598294706200E-017 ) ) ;
#143 = LINE ( 'NONE', #144, #33 ) ;
#144 = CARTESIAN_POINT ( 'NONE',  ( 0.0000000000000000000, 0.1250000000000000000, -0.6250000000000000000 ) ) ;
#145 = DIRECTION ( 'NONE',  ( -1.000000000000000000, -0.0000000000000000000, -0.0000000000000000000 ) ) ;
#146 = LINE ( 'NONE', #147, #36 ) ;
#147 = CARTESIAN_POINT ( 'NONE',  ( 0.6250000000000000000, 0.1250000000000000000, -1.530808498934191500E-017 ) ) ;
#148 = DIRECTION ( 'NONE',  ( -0.0000000000000000000, -1.000000000000000000, -0.0000000000000000000 ) ) ;
#149 = LINE ( 'NONE', #150, #167 ) ;
#150 = CARTESIAN_POINT ( 'NONE',  ( 0.0000000000000000000, 0.0000000000000000000, 0.0000000000000000000 ) ) ;
#151 = DIRECTION ( 'NONE',  ( -0.0000000000000000000, -0.0000000000000000000, 1.000000000000000000 ) ) ;
#152 = LINE ( 'NONE', #153, #168 ) ;
#153 = CARTESIAN_POINT ( 'NONE',  ( 0.0000000000000000000, 0.1250000000000000000, 0.0000000000000000000 ) ) ;
#154 = DIRECTION ( 'NONE',  ( -0.0000000000000000000, -0.0000000000000000000, 1.000000000000000000 ) ) ;
#155 = CARTESIAN_POINT ( 'NONE',  ( 0.6250000000000000000, 0.1250000000000000000, -1.530808498934191500E-017 ) ) ;
#156 = DIRECTION ( 'NONE',  ( -2.449293598294706200E-017, 0.0000000000000000000, -1.000000000000000000 ) ) ;
#157 = DIRECTION ( 'NONE',  ( -1.000000000000000000, 0.0000000000000000000, 2.449293598294706200E-017 ) ) ;
#158 = PLANE ( 'NONE',  #46 ) ;
#159 = CARTESIAN_POINT ( 'NONE',  ( 0.6249999999999997800, 0.1250000000000000000, -0.6250000000000000000 ) ) ;
#160 = DIRECTION ( 'NONE',  ( -1.000000000000000000, 0.0000000000000000000, 4.370956789862821100E-016 ) ) ;
#161 = DIRECTION ( 'NONE',  ( 4.370956789862821100E-016, 0.0000000000000000000, 1.000000000000000000 ) ) ;
#162 = PLANE ( 'NONE',  #3 ) ;
#163 = CARTESIAN_POINT ( 'NONE',  ( 0.0000000000000000000, 0.1250000000000000000, -0.6250000000000000000 ) ) ;
#164 = DIRECTION ( 'NONE',  ( 0.0000000000000000000, 0.0000000000000000000, 1.000000000000000000 ) ) ;
#165 = DIRECTION ( 'NONE',  ( 1.000000000000000000, 0.0000000000000000000, -0.0000000000000000000 ) ) ;
#166 = PLANE ( 'NONE',  #2 ) ;
#167 = VECTOR ( 'NONE', #151, 39.37007874015748100 ) ;
#168 = VECTOR ( 'NONE', #154, 39.37007874015748100 ) ;
#169 = AXIS2_PLACEMENT_3D ( 'NONE', #155, #156, #157 ) ;
#170 = FACE_OUTER_BOUND ( 'NONE', #107, .T. ) ;
#171 = FACE_OUTER_BOUND ( 'NONE', #108, .T. ) ;
#172 = LENGTH_MEASURE_WITH_UNIT ( LENGTH_MEASURE( 0.02539999999999999900 ), #99 );
#173 = EDGE_LOOP ( 'NONE', ( #115, #121, #114, #113 ) ) ;
#174 = EDGE_LOOP ( 'NONE', ( #119, #112, #111, #117 ) ) ;
#175 = VERTEX_POINT ( 'NONE', #103 ) ;
#176 = VERTEX_POINT ( 'NONE', #104 ) ;
#177 = VERTEX_POINT ( 'NONE', #105 ) ;
#178 = VERTEX_POINT ( 'NONE', #106 ) ;
#179 = VERTEX_POINT ( 'NONE', #55 ) ;
#180 = VERTEX_POINT ( 'NONE', #56 ) ;
#181 = VERTEX_POINT ( 'NONE', #57 ) ;
#182 = VERTEX_POINT ( 'NONE', #58 ) ;
#183 = ORIENTED_EDGE ( 'NONE', *, *, #13, .T. ) ;
#184 = ORIENTED_EDGE ( 'NONE', *, *, #23, .F. ) ;
#185 = ORIENTED_EDGE ( 'NONE', *, *, #18, .T. ) ;
#186 = ORIENTED_EDGE ( 'NONE', *, *, #21, .F. ) ;
#187 = ORIENTED_EDGE ( 'NONE', *, *, #16, .T. ) ;
#188 = ORIENTED_EDGE ( 'NONE', *, *, #19, .F. ) ;
#189 = ORIENTED_EDGE ( 'NONE', *, *, #15, .F. ) ;
#190 = ORIENTED_EDGE ( 'NONE', *, *, #20, .F. ) ;
#191 = ORIENTED_EDGE ( 'NONE', *, *, #12, .T. ) ;
#192 = ORIENTED_EDGE ( 'NONE', *, *, #17, .T. ) ;
#193 = ORIENTED_EDGE ( 'NONE', *, *, #14, .F. ) ;
#194 = ORIENTED_EDGE ( 'NONE', *, *, #21, .T. ) ;
#195 = ORIENTED_EDGE ( 'NONE', *, *, #16, .F. ) ;
#196 = LINE ( 'NONE', #197, #49 ) ;
#197 = CARTESIAN_POINT ( 'NONE',  ( 0.6250000000000000000, 0.0000000000000000000, -1.530808498934191500E-017 ) ) ;
#198 = DIRECTION ( 'NONE',  ( 1.000000000000000000, -0.0000000000000000000, -2.449293598294706200E-017 ) ) ;
#199 = PLANE ( 'NONE',  #169 ) ;
#200 = LINE ( 'NONE', #201, #50 ) ;
#201 = CARTESIAN_POINT ( 'NONE',  ( 0.6249999999999997800, 0.0000000000000000000, -0.6250000000000000000 ) ) ;
#202 = DIRECTION ( 'NONE',  ( -4.370956789862821100E-016, -0.0000000000000000000, -1.000000000000000000 ) ) ;
#203 = LINE ( 'NONE', #204, #51 ) ;
#204 = CARTESIAN_POINT ( 'NONE',  ( 0.6249999999999997800, 0.1250000000000000000, -0.6250000000000000000 ) ) ;
#205 = DIRECTION ( 'NONE',  ( -4.370956789862821100E-016, -0.0000000000000000000, -1.000000000000000000 ) ) ;
#206 = LINE ( 'NONE', #207, #52 ) ;
#207 = CARTESIAN_POINT ( 'NONE',  ( 0.0000000000000000000, 0.1250000000000000000, -0.6250000000000000000 ) ) ;
#208 = DIRECTION ( 'NONE',  ( -0.0000000000000000000, -1.000000000000000000, -0.0000000000000000000 ) ) ;
#209 =( GEOMETRIC_REPRESENTATION_CONTEXT ( 3 ) GLOBAL_UNCERTAINTY_ASSIGNED_CONTEXT ( ( #126 ) ) GLOBAL_UNIT_ASSIGNED_CONTEXT ( ( #100, #101, #102 ) ) REPRESENTATION_CONTEXT ( 'NONE', 'WORKASPACE' ) );
#210 =( GEOMETRIC_REPRESENTATION_CONTEXT ( 3 ) GLOBAL_UNCERTAINTY_ASSIGNED_CONTEXT ( ( #128 ) ) GLOBAL_UNIT_ASSIGNED_CONTEXT ( ( #60, #61, #62 ) ) REPRESENTATION_CONTEXT ( 'NONE', 'WORKASPACE' ) );
#211 =( GEOMETRIC_REPRESENTATION_CONTEXT ( 3 ) GLOBAL_UNCERTAINTY_ASSIGNED_CONTEXT ( ( #127 ) ) GLOBAL_UNIT_ASSIGNED_CONTEXT ( ( #70, #37, #38 ) ) REPRESENTATION_CONTEXT ( 'NONE', 'WORKASPACE' ) );
ENDSEC;
END-ISO-10303-21;
