ISO-10303-21;
HEADER;
FILE_DESCRIPTION (( 'STEP AP214' ),
    '1' );
FILE_NAME ('Q188F-M.step',
    '2012-04-20T21:03:15',
    ( '' ),
    ( '' ),
    'SwSTEP 2.0',
    'SolidWorks 2012',
    '' );
FILE_SCHEMA (( 'AUTOMOTIVE_DESIGN' ));
ENDSEC;

DATA;
#1 = EDGE_CURVE ( 'NONE', #337, #338, #94, .T. ) ;
#2 = EDGE_CURVE ( 'NONE', #339, #335, #98, .T. ) ;
#3 = EDGE_CURVE ( 'NONE', #334, #337, #101, .T. ) ;
#4 = EDGE_CURVE ( 'NONE', #336, #338, #104, .T. ) ;
#5 = EDGE_CURVE ( 'NONE', #333, #340, #107, .T. ) ;
#6 = EDGE_CURVE ( 'NONE', #339, #333, #110, .T. ) ;
#7 = EDGE_CURVE ( 'NONE', #336, #334, #113, .T. ) ;
#8 = ADVANCED_FACE ( 'NONE', ( #50 ), #97, .F. ) ;
#9 = ADVANCED_FACE ( 'NONE', ( #44 ), #119, .F. ) ;
#10 = EDGE_CURVE ( 'NONE', #340, #335, #123, .T. ) ;
#11 = ADVANCED_FACE ( 'NONE', ( #47 ), #126, .F. ) ;
#12 = ADVANCED_FACE ( 'NONE', ( #138 ), #130, .F. ) ;
#13 = ADVANCED_FACE ( 'NONE', ( #139 ), #134, .F. ) ;
#14 = ADVANCED_FACE ( 'NONE', ( #141 ), #159, .F. ) ;
#15 = ADVANCED_FACE ( 'NONE', ( #143 ), #163, .F. ) ;
#16 = ADVANCED_FACE ( 'NONE', ( #145 ), #167, .T. ) ;
#17 = ADVANCED_FACE ( 'NONE', ( #147 ), #171, .F. ) ;
#18 = EDGE_CURVE ( 'NONE', #337, #342, #175, .T. ) ;
#19 = EDGE_CURVE ( 'NONE', #341, #342, #179, .T. ) ;
#20 = EDGE_CURVE ( 'NONE', #334, #341, #182, .T. ) ;
#21 = EDGE_CURVE ( 'NONE', #333, #343, #185, .T. ) ;
#22 = EDGE_CURVE ( 'NONE', #342, #343, #188, .T. ) ;
#23 = EDGE_CURVE ( 'NONE', #344, #339, #191, .T. ) ;
#24 = EDGE_CURVE ( 'NONE', #345, #344, #194, .T. ) ;
#25 = EDGE_CURVE ( 'NONE', #345, #338, #197, .T. ) ;
#26 = EDGE_CURVE ( 'NONE', #340, #346, #200, .T. ) ;
#27 = EDGE_CURVE ( 'NONE', #343, #346, #203, .T. ) ;
#28 = EDGE_CURVE ( 'NONE', #346, #341, #206, .T. ) ;
#29 = EDGE_CURVE ( 'NONE', #51, #336, #209, .T. ) ;
#30 = EDGE_CURVE ( 'NONE', #77, #51, #212, .T. ) ;
#31 = EDGE_CURVE ( 'NONE', #77, #335, #215, .T. ) ;
#32 = EDGE_CURVE ( 'NONE', #344, #77, #218, .T. ) ;
#33 = EDGE_CURVE ( 'NONE', #51, #345, #221, .T. ) ;
#34 = ADVANCED_FACE ( 'NONE', ( #135 ), #178, .F. ) ;
#35 = COLOUR_RGB ( '',1.000000000000000000, 0.1686274509803921700, 0.1686274509803921700 ) ;
#36 = COLOUR_RGB ( '',0.5686274509803921400, 0.5686274509803921400, 0.5882352941176470800 ) ;
#37 = PRODUCT_DEFINITION ( 'UNKNOWN', '', #291, #315 ) ;
#38 = COLOUR_RGB ( '',0.5686274509803921400, 0.5686274509803921400, 0.5882352941176470800 ) ;
#39 = PRODUCT_RELATED_PRODUCT_CATEGORY ( 'part', '', ( #325 ) ) ;
#40 = AXIS2_PLACEMENT_3D ( 'NONE', #116, #117, #118 ) ;
#41 = VECTOR ( 'NONE', #196, 39.37007874015748100 ) ;
#42 = VECTOR ( 'NONE', #115, 39.37007874015748100 ) ;
#43 = VECTOR ( 'NONE', #106, 39.37007874015748100 ) ;
#44 = FACE_OUTER_BOUND ( 'NONE', #56, .T. ) ;
#45 = VECTOR ( 'NONE', #112, 39.37007874015748100 ) ;
#46 = VECTOR ( 'NONE', #109, 39.37007874015748100 ) ;
#47 = FACE_OUTER_BOUND ( 'NONE', #57, .T. ) ;
#48 = CLOSED_SHELL ( 'NONE', ( #8, #9, #11, #12, #13, #14, #16, #17, #15, #34 ) ) ;
#49 = VECTOR ( 'NONE', #96, 39.37007874015748100 ) ;
#50 = FACE_OUTER_BOUND ( 'NONE', #55, .T. ) ;
#51 = VERTEX_POINT ( 'NONE', #255 ) ;
#52 = ORIENTED_EDGE ( 'NONE', *, *, #3, .T. ) ;
#53 = ORIENTED_EDGE ( 'NONE', *, *, #7, .T. ) ;
#54 = ORIENTED_EDGE ( 'NONE', *, *, #1, .T. ) ;
#55 = EDGE_LOOP ( 'NONE', ( #347, #53, #52, #54 ) ) ;
#56 = EDGE_LOOP ( 'NONE', ( #348, #350, #349, #351 ) ) ;
#57 = EDGE_LOOP ( 'NONE', ( #352, #354, #353, #355 ) ) ;
#58 = UNCERTAINTY_MEASURE_WITH_UNIT (LENGTH_MEASURE( 1.000000000000000100E-005 ), #264, 'distance_accuracy_value', 'NONE');
#59 = UNCERTAINTY_MEASURE_WITH_UNIT (LENGTH_MEASURE( 1.000000000000000100E-005 ), #302, 'distance_accuracy_value', 'NONE');
#60 = ADVANCED_BREP_SHAPE_REPRESENTATION ( 'Q188F-M', ( #313, #290 ), #292 ) ;
#61 = UNCERTAINTY_MEASURE_WITH_UNIT (LENGTH_MEASURE( 1.000000000000000100E-005 ), #249, 'distance_accuracy_value', 'NONE');
#62 = UNCERTAINTY_MEASURE_WITH_UNIT (LENGTH_MEASURE( 1.000000000000000100E-005 ), #282, 'distance_accuracy_value', 'NONE');
#63 = ORIENTED_EDGE ( 'NONE', *, *, #1, .F. ) ;
#64 = ORIENTED_EDGE ( 'NONE', *, *, #18, .T. ) ;
#65 = ORIENTED_EDGE ( 'NONE', *, *, #27, .T. ) ;
#66 = ORIENTED_EDGE ( 'NONE', *, *, #5, .F. ) ;
#67 = ORIENTED_EDGE ( 'NONE', *, *, #26, .F. ) ;
#68 = ORIENTED_EDGE ( 'NONE', *, *, #7, .F. ) ;
#69 = ORIENTED_EDGE ( 'NONE', *, *, #21, .T. ) ;
#70 = ORIENTED_EDGE ( 'NONE', *, *, #28, .T. ) ;
#71 = ORIENTED_EDGE ( 'NONE', *, *, #29, .F. ) ;
#72 = ORIENTED_EDGE ( 'NONE', *, *, #20, .F. ) ;
#73 = ORIENTED_EDGE ( 'NONE', *, *, #31, .T. ) ;
#74 = ORIENTED_EDGE ( 'NONE', *, *, #30, .F. ) ;
#75 = ORIENTED_EDGE ( 'NONE', *, *, #10, .F. ) ;
#76 = ORIENTED_EDGE ( 'NONE', *, *, #22, .F. ) ;
#77 = VERTEX_POINT ( 'NONE', #256 ) ;
#78 = ORIENTED_EDGE ( 'NONE', *, *, #26, .T. ) ;
#79 = ORIENTED_EDGE ( 'NONE', *, *, #19, .F. ) ;
#80 = ORIENTED_EDGE ( 'NONE', *, *, #28, .F. ) ;
#81 = ORIENTED_EDGE ( 'NONE', *, *, #27, .F. ) ;
#82 = ORIENTED_EDGE ( 'NONE', *, *, #2, .T. ) ;
#83 = ORIENTED_EDGE ( 'NONE', *, *, #31, .F. ) ;
#84 = ORIENTED_EDGE ( 'NONE', *, *, #32, .F. ) ;
#85 = ORIENTED_EDGE ( 'NONE', *, *, #23, .T. ) ;
#86 = ORIENTED_EDGE ( 'NONE', *, *, #4, .T. ) ;
#87 = ORIENTED_EDGE ( 'NONE', *, *, #25, .F. ) ;
#88 = ORIENTED_EDGE ( 'NONE', *, *, #33, .F. ) ;
#89 = ORIENTED_EDGE ( 'NONE', *, *, #33, .T. ) ;
#90 = ORIENTED_EDGE ( 'NONE', *, *, #29, .T. ) ;
#91 = ORIENTED_EDGE ( 'NONE', *, *, #24, .T. ) ;
#92 = ORIENTED_EDGE ( 'NONE', *, *, #32, .T. ) ;
#93 = ORIENTED_EDGE ( 'NONE', *, *, #30, .T. ) ;
#94 = LINE ( 'NONE', #95, #49 ) ;
#95 = CARTESIAN_POINT ( 'NONE',  ( 0.7499999999999998900, 0.1875000000000000300, -0.7500000000000001100 ) ) ;
#96 = DIRECTION ( 'NONE',  ( -1.821231995776175700E-016, -0.0000000000000000000, -1.000000000000000000 ) ) ;
#97 = PLANE ( 'NONE',  #40 ) ;
#98 = LINE ( 'NONE', #99, #317 ) ;
#99 = CARTESIAN_POINT ( 'NONE',  ( 0.7500000000000001100, 0.1875000000000000300, -0.4062499999999998900 ) ) ;
#100 = DIRECTION ( 'NONE',  ( -1.000000000000000000, 0.0000000000000000000, 0.0000000000000000000 ) ) ;
#101 = LINE ( 'NONE', #102, #318 ) ;
#102 = CARTESIAN_POINT ( 'NONE',  ( 0.7500000000000001100, 0.1875000000000000300, 3.061616997868381800E-017 ) ) ;
#103 = DIRECTION ( 'NONE',  ( 1.000000000000000000, -0.0000000000000000000, 4.082155997157842000E-017 ) ) ;
#104 = LINE ( 'NONE', #105, #43 ) ;
#105 = CARTESIAN_POINT ( 'NONE',  ( 0.7500000000000001100, 0.1875000000000000300, -0.3437499999999999400 ) ) ;
#106 = DIRECTION ( 'NONE',  ( 1.000000000000000000, -0.0000000000000000000, -0.0000000000000000000 ) ) ;
#107 = LINE ( 'NONE', #108, #46 ) ;
#108 = CARTESIAN_POINT ( 'NONE',  ( 0.0000000000000000000, 0.1875000000000000300, -0.7499999999999998900 ) ) ;
#109 = DIRECTION ( 'NONE',  ( -1.000000000000000000, -0.0000000000000000000, 1.821231995776175700E-016 ) ) ;
#110 = LINE ( 'NONE', #111, #45 ) ;
#111 = CARTESIAN_POINT ( 'NONE',  ( 0.7499999999999998900, 0.1875000000000000300, -0.7500000000000001100 ) ) ;
#112 = DIRECTION ( 'NONE',  ( -1.821231995776175700E-016, -0.0000000000000000000, -1.000000000000000000 ) ) ;
#113 = LINE ( 'NONE', #114, #42 ) ;
#114 = CARTESIAN_POINT ( 'NONE',  ( 0.0000000000000000000, 0.1875000000000000300, 0.0000000000000000000 ) ) ;
#115 = DIRECTION ( 'NONE',  ( -0.0000000000000000000, -0.0000000000000000000, 1.000000000000000000 ) ) ;
#116 = CARTESIAN_POINT ( 'NONE',  ( 0.0000000000000000000, 0.1875000000000000300, 0.0000000000000000000 ) ) ;
#117 = DIRECTION ( 'NONE',  ( 0.0000000000000000000, -1.000000000000000000, 0.0000000000000000000 ) ) ;
#118 = DIRECTION ( 'NONE',  ( 0.0000000000000000000, 0.0000000000000000000, -1.000000000000000000 ) ) ;
#119 = PLANE ( 'NONE',  #316 ) ;
#120 = CARTESIAN_POINT ( 'NONE',  ( 0.0000000000000000000, 0.1875000000000000300, 0.0000000000000000000 ) ) ;
#121 = DIRECTION ( 'NONE',  ( 0.0000000000000000000, -1.000000000000000000, 0.0000000000000000000 ) ) ;
#122 = DIRECTION ( 'NONE',  ( 0.0000000000000000000, 0.0000000000000000000, -1.000000000000000000 ) ) ;
#123 = LINE ( 'NONE', #124, #136 ) ;
#124 = CARTESIAN_POINT ( 'NONE',  ( 0.0000000000000000000, 0.1875000000000000300, 0.0000000000000000000 ) ) ;
#125 = DIRECTION ( 'NONE',  ( -0.0000000000000000000, -0.0000000000000000000, 1.000000000000000000 ) ) ;
#126 = PLANE ( 'NONE',  #137 ) ;
#127 = CARTESIAN_POINT ( 'NONE',  ( 0.7500000000000001100, 0.1875000000000000300, 3.061616997868381800E-017 ) ) ;
#128 = DIRECTION ( 'NONE',  ( 4.082155997157842000E-017, 0.0000000000000000000, -1.000000000000000000 ) ) ;
#129 = DIRECTION ( 'NONE',  ( -1.000000000000000000, 0.0000000000000000000, -4.082155997157842000E-017 ) ) ;
#130 = PLANE ( 'NONE',  #140 ) ;
#131 = CARTESIAN_POINT ( 'NONE',  ( 0.7499999999999998900, 0.1875000000000000300, -0.7500000000000001100 ) ) ;
#132 = DIRECTION ( 'NONE',  ( -1.000000000000000000, 0.0000000000000000000, 1.821231995776175500E-016 ) ) ;
#133 = DIRECTION ( 'NONE',  ( 1.821231995776175500E-016, 0.0000000000000000000, 1.000000000000000000 ) ) ;
#134 = PLANE ( 'NONE',  #142 ) ;
#135 = FACE_OUTER_BOUND ( 'NONE', #332, .T. ) ;
#136 = VECTOR ( 'NONE', #125, 39.37007874015748100 ) ;
#137 = AXIS2_PLACEMENT_3D ( 'NONE', #127, #128, #129 ) ;
#138 = FACE_OUTER_BOUND ( 'NONE', #326, .T. ) ;
#139 = FACE_OUTER_BOUND ( 'NONE', #327, .T. ) ;
#140 = AXIS2_PLACEMENT_3D ( 'NONE', #131, #132, #133 ) ;
#141 = FACE_OUTER_BOUND ( 'NONE', #328, .T. ) ;
#142 = AXIS2_PLACEMENT_3D ( 'NONE', #156, #157, #158 ) ;
#143 = FACE_OUTER_BOUND ( 'NONE', #331, .T. ) ;
#144 = AXIS2_PLACEMENT_3D ( 'NONE', #160, #161, #162 ) ;
#145 = FACE_OUTER_BOUND ( 'NONE', #329, .T. ) ;
#146 = AXIS2_PLACEMENT_3D ( 'NONE', #164, #165, #166 ) ;
#147 = FACE_OUTER_BOUND ( 'NONE', #330, .T. ) ;
#148 = AXIS2_PLACEMENT_3D ( 'NONE', #168, #169, #170 ) ;
#149 = AXIS2_PLACEMENT_3D ( 'NONE', #172, #173, #174 ) ;
#150 = VECTOR ( 'NONE', #177, 39.37007874015748100 ) ;
#151 = VECTOR ( 'NONE', #181, 39.37007874015748100 ) ;
#152 = VECTOR ( 'NONE', #184, 39.37007874015748100 ) ;
#153 = VECTOR ( 'NONE', #187, 39.37007874015748100 ) ;
#154 = VECTOR ( 'NONE', #190, 39.37007874015748100 ) ;
#155 = VECTOR ( 'NONE', #193, 39.37007874015748100 ) ;
#156 = CARTESIAN_POINT ( 'NONE',  ( 0.0000000000000000000, 0.1875000000000000300, -0.7499999999999998900 ) ) ;
#157 = DIRECTION ( 'NONE',  ( 1.821231995776176200E-016, -0.0000000000000000000, 1.000000000000000000 ) ) ;
#158 = DIRECTION ( 'NONE',  ( 1.000000000000000000, 0.0000000000000000000, -1.821231995776176200E-016 ) ) ;
#159 = PLANE ( 'NONE',  #144 ) ;
#160 = CARTESIAN_POINT ( 'NONE',  ( 0.0000000000000000000, 0.1875000000000000300, 0.0000000000000000000 ) ) ;
#161 = DIRECTION ( 'NONE',  ( 1.000000000000000000, -0.0000000000000000000, 0.0000000000000000000 ) ) ;
#162 = DIRECTION ( 'NONE',  ( 0.0000000000000000000, 0.0000000000000000000, -1.000000000000000000 ) ) ;
#163 = PLANE ( 'NONE',  #146 ) ;
#164 = CARTESIAN_POINT ( 'NONE',  ( 0.7500000000000001100, 0.1875999999999999900, -0.3437499999999999400 ) ) ;
#165 = DIRECTION ( 'NONE',  ( 0.0000000000000000000, 0.0000000000000000000, -1.000000000000000000 ) ) ;
#166 = DIRECTION ( 'NONE',  ( -1.000000000000000000, 0.0000000000000000000, -0.0000000000000000000 ) ) ;
#167 = PLANE ( 'NONE',  #148 ) ;
#168 = CARTESIAN_POINT ( 'NONE',  ( 0.0000000000000000000, 0.0000000000000000000, 0.0000000000000000000 ) ) ;
#169 = DIRECTION ( 'NONE',  ( 0.0000000000000000000, -1.000000000000000000, 0.0000000000000000000 ) ) ;
#170 = DIRECTION ( 'NONE',  ( 0.0000000000000000000, 0.0000000000000000000, -1.000000000000000000 ) ) ;
#171 = PLANE ( 'NONE',  #149 ) ;
#172 = CARTESIAN_POINT ( 'NONE',  ( 0.7500000000000001100, 0.1875999999999999900, -0.4062499999999998900 ) ) ;
#173 = DIRECTION ( 'NONE',  ( 0.0000000000000000000, -0.0000000000000000000, 1.000000000000000000 ) ) ;
#174 = DIRECTION ( 'NONE',  ( 1.000000000000000000, 0.0000000000000000000, -0.0000000000000000000 ) ) ;
#175 = LINE ( 'NONE', #176, #150 ) ;
#176 = CARTESIAN_POINT ( 'NONE',  ( 0.7500000000000001100, 0.1875000000000000300, 3.061616997868381800E-017 ) ) ;
#177 = DIRECTION ( 'NONE',  ( -0.0000000000000000000, -1.000000000000000000, -0.0000000000000000000 ) ) ;
#178 = PLANE ( 'NONE',  #239 ) ;
#179 = LINE ( 'NONE', #180, #151 ) ;
#180 = CARTESIAN_POINT ( 'NONE',  ( 0.7500000000000001100, 0.0000000000000000000, 3.061616997868381800E-017 ) ) ;
#181 = DIRECTION ( 'NONE',  ( 1.000000000000000000, -0.0000000000000000000, 4.082155997157842000E-017 ) ) ;
#182 = LINE ( 'NONE', #183, #152 ) ;
#183 = CARTESIAN_POINT ( 'NONE',  ( 0.0000000000000000000, 0.1875000000000000300, 0.0000000000000000000 ) ) ;
#184 = DIRECTION ( 'NONE',  ( -0.0000000000000000000, -1.000000000000000000, -0.0000000000000000000 ) ) ;
#185 = LINE ( 'NONE', #186, #153 ) ;
#186 = CARTESIAN_POINT ( 'NONE',  ( 0.7499999999999998900, 0.1875000000000000300, -0.7500000000000001100 ) ) ;
#187 = DIRECTION ( 'NONE',  ( -0.0000000000000000000, -1.000000000000000000, -0.0000000000000000000 ) ) ;
#188 = LINE ( 'NONE', #189, #154 ) ;
#189 = CARTESIAN_POINT ( 'NONE',  ( 0.7499999999999998900, 0.0000000000000000000, -0.7500000000000001100 ) ) ;
#190 = DIRECTION ( 'NONE',  ( -1.821231995776175700E-016, -0.0000000000000000000, -1.000000000000000000 ) ) ;
#191 = LINE ( 'NONE', #192, #155 ) ;
#192 = CARTESIAN_POINT ( 'NONE',  ( 0.7500000000000001100, 0.1875999999999999900, -0.4062499999999998900 ) ) ;
#193 = DIRECTION ( 'NONE',  ( -0.0000000000000000000, -1.000000000000000000, -0.0000000000000000000 ) ) ;
#194 = LINE ( 'NONE', #195, #41 ) ;
#195 = CARTESIAN_POINT ( 'NONE',  ( 0.7500000000000001100, 0.1875999999999999900, -0.4062499999999998900 ) ) ;
#196 = DIRECTION ( 'NONE',  ( -0.0000000000000000000, -0.0000000000000000000, -1.000000000000000000 ) ) ;
#197 = LINE ( 'NONE', #198, #228 ) ;
#198 = CARTESIAN_POINT ( 'NONE',  ( 0.7500000000000001100, 0.1875999999999999900, -0.3437499999999999400 ) ) ;
#199 = DIRECTION ( 'NONE',  ( -0.0000000000000000000, -1.000000000000000000, -0.0000000000000000000 ) ) ;
#200 = LINE ( 'NONE', #201, #230 ) ;
#201 = CARTESIAN_POINT ( 'NONE',  ( 0.0000000000000000000, 0.1875000000000000300, -0.7499999999999998900 ) ) ;
#202 = DIRECTION ( 'NONE',  ( -0.0000000000000000000, -1.000000000000000000, -0.0000000000000000000 ) ) ;
#203 = LINE ( 'NONE', #204, #231 ) ;
#204 = CARTESIAN_POINT ( 'NONE',  ( 0.0000000000000000000, 0.0000000000000000000, -0.7499999999999998900 ) ) ;
#205 = DIRECTION ( 'NONE',  ( -1.000000000000000000, -0.0000000000000000000, 1.821231995776175700E-016 ) ) ;
#206 = LINE ( 'NONE', #207, #232 ) ;
#207 = CARTESIAN_POINT ( 'NONE',  ( 0.0000000000000000000, 0.0000000000000000000, 0.0000000000000000000 ) ) ;
#208 = DIRECTION ( 'NONE',  ( -0.0000000000000000000, -0.0000000000000000000, 1.000000000000000000 ) ) ;
#209 = LINE ( 'NONE', #210, #233 ) ;
#210 = CARTESIAN_POINT ( 'NONE',  ( 0.0000000000000000000, 0.1875999999999999900, -0.3437499999999999400 ) ) ;
#211 = DIRECTION ( 'NONE',  ( -0.0000000000000000000, -1.000000000000000000, -0.0000000000000000000 ) ) ;
#212 = LINE ( 'NONE', #213, #234 ) ;
#213 = CARTESIAN_POINT ( 'NONE',  ( 0.0000000000000000000, 0.1875999999999999900, -0.4062499999999998900 ) ) ;
#214 = DIRECTION ( 'NONE',  ( 0.0000000000000000000, 0.0000000000000000000, 1.000000000000000000 ) ) ;
#215 = LINE ( 'NONE', #216, #235 ) ;
#216 = CARTESIAN_POINT ( 'NONE',  ( 0.0000000000000000000, 0.1875999999999999900, -0.4062499999999998900 ) ) ;
#217 = DIRECTION ( 'NONE',  ( -0.0000000000000000000, -1.000000000000000000, -0.0000000000000000000 ) ) ;
#218 = LINE ( 'NONE', #219, #236 ) ;
#219 = CARTESIAN_POINT ( 'NONE',  ( 0.7500000000000001100, 0.1875999999999999900, -0.4062499999999998900 ) ) ;
#220 = DIRECTION ( 'NONE',  ( -1.000000000000000000, 0.0000000000000000000, 0.0000000000000000000 ) ) ;
#221 = LINE ( 'NONE', #222, #238 ) ;
#222 = CARTESIAN_POINT ( 'NONE',  ( 0.7500000000000001100, 0.1875999999999999900, -0.3437499999999999400 ) ) ;
#223 = DIRECTION ( 'NONE',  ( 1.000000000000000000, -0.0000000000000000000, -0.0000000000000000000 ) ) ;
#224 = FILL_AREA_STYLE_COLOUR ( '', #35 ) ;
#225 = FILL_AREA_STYLE ('',( #224 ) ) ;
#226 = SURFACE_STYLE_FILL_AREA ( #225 ) ;
#227 = SURFACE_SIDE_STYLE ('',( #226 ) ) ;
#228 = VECTOR ( 'NONE', #199, 39.37007874015748100 ) ;
#229 = STYLED_ITEM ( 'NONE', ( #247 ), #34 ) ;
#230 = VECTOR ( 'NONE', #202, 39.37007874015748100 ) ;
#231 = VECTOR ( 'NONE', #205, 39.37007874015748100 ) ;
#232 = VECTOR ( 'NONE', #208, 39.37007874015748100 ) ;
#233 = VECTOR ( 'NONE', #211, 39.37007874015748100 ) ;
#234 = VECTOR ( 'NONE', #214, 39.37007874015748100 ) ;
#235 = VECTOR ( 'NONE', #217, 39.37007874015748100 ) ;
#236 = VECTOR ( 'NONE', #220, 39.37007874015748100 ) ;
#237 = STYLED_ITEM ( 'NONE', ( #262 ), #313 ) ;
#238 = VECTOR ( 'NONE', #223, 39.37007874015748100 ) ;
#239 = AXIS2_PLACEMENT_3D ( 'NONE', #252, #253, #254 ) ;
#240 = PRESENTATION_LAYER_ASSIGNMENT (  '', '', ( #229 ) ) ;
#241 = MECHANICAL_DESIGN_GEOMETRIC_PRESENTATION_REPRESENTATION (  '', ( #229 ), #319 ) ;
#242 = LENGTH_MEASURE_WITH_UNIT ( LENGTH_MEASURE( 0.02539999999999999900 ), #248 );
#243 = PRESENTATION_LAYER_ASSIGNMENT (  '', '', ( #237 ) ) ;
#244 = MECHANICAL_DESIGN_GEOMETRIC_PRESENTATION_REPRESENTATION (  '', ( #237 ), #320 ) ;
#245 = LENGTH_MEASURE_WITH_UNIT ( LENGTH_MEASURE( 0.02539999999999999900 ), #263 );
#246 = SURFACE_STYLE_USAGE ( .BOTH. , #227 ) ;
#247 = PRESENTATION_STYLE_ASSIGNMENT (( #246 ) ) ;
#248 =( LENGTH_UNIT ( ) NAMED_UNIT ( * ) SI_UNIT ( $, .METRE. ) );
#249 =( CONVERSION_BASED_UNIT ( 'INCH', #242 ) LENGTH_UNIT ( ) NAMED_UNIT ( #321 ) );
#250 =( NAMED_UNIT ( * ) PLANE_ANGLE_UNIT ( ) SI_UNIT ( $, .RADIAN. ) );
#251 =( NAMED_UNIT ( * ) SI_UNIT ( $, .STERADIAN. ) SOLID_ANGLE_UNIT ( ) );
#252 = CARTESIAN_POINT ( 'NONE',  ( 0.0000000000000000000, 0.1875999999999999900, 0.0000000000000000000 ) ) ;
#253 = DIRECTION ( 'NONE',  ( 0.0000000000000000000, -1.000000000000000000, 0.0000000000000000000 ) ) ;
#254 = DIRECTION ( 'NONE',  ( 0.0000000000000000000, -0.0000000000000000000, -1.000000000000000000 ) ) ;
#255 = CARTESIAN_POINT ( 'NONE',  ( 0.0000000000000000000, 0.1875999999999999900, -0.3437499999999999400 ) ) ;
#256 = CARTESIAN_POINT ( 'NONE',  ( 0.0000000000000000000, 0.1875999999999999900, -0.4062499999999998900 ) ) ;
#257 = FILL_AREA_STYLE_COLOUR ( '', #38 ) ;
#258 = FILL_AREA_STYLE ('',( #257 ) ) ;
#259 = SURFACE_STYLE_FILL_AREA ( #258 ) ;
#260 = SURFACE_SIDE_STYLE ('',( #259 ) ) ;
#261 = SURFACE_STYLE_USAGE ( .BOTH. , #260 ) ;
#262 = PRESENTATION_STYLE_ASSIGNMENT (( #261 ) ) ;
#263 =( LENGTH_UNIT ( ) NAMED_UNIT ( * ) SI_UNIT ( $, .METRE. ) );
#264 =( CONVERSION_BASED_UNIT ( 'INCH', #245 ) LENGTH_UNIT ( ) NAMED_UNIT ( #322 ) );
#265 =( NAMED_UNIT ( * ) PLANE_ANGLE_UNIT ( ) SI_UNIT ( $, .RADIAN. ) );
#266 =( NAMED_UNIT ( * ) SI_UNIT ( $, .STERADIAN. ) SOLID_ANGLE_UNIT ( ) );
#267 = CARTESIAN_POINT ( 'NONE',  ( 0.7499999999999998900, 0.1875000000000000300, -0.7500000000000001100 ) ) ;
#268 = CARTESIAN_POINT ( 'NONE',  ( 0.0000000000000000000, 0.1875000000000000300, 0.0000000000000000000 ) ) ;
#269 = CARTESIAN_POINT ( 'NONE',  ( 0.0000000000000000000, 0.1875000000000000300, -0.4062499999999998900 ) ) ;
#270 = CARTESIAN_POINT ( 'NONE',  ( 0.0000000000000000000, 0.1875000000000000300, -0.3437499999999999400 ) ) ;
#271 = CARTESIAN_POINT ( 'NONE',  ( 0.7500000000000001100, 0.1875000000000000300, 3.061616997868381800E-017 ) ) ;
#272 = CARTESIAN_POINT ( 'NONE',  ( 0.7500000000000001100, 0.1875000000000000300, -0.3437500000000001700 ) ) ;
#273 = CARTESIAN_POINT ( 'NONE',  ( 0.7499999999999998900, 0.1875000000000000300, -0.4062500000000001700 ) ) ;
#274 = CARTESIAN_POINT ( 'NONE',  ( 0.0000000000000000000, 0.1875000000000000300, -0.7499999999999998900 ) ) ;
#275 = CARTESIAN_POINT ( 'NONE',  ( 0.0000000000000000000, 0.0000000000000000000, 0.0000000000000000000 ) ) ;
#276 = CARTESIAN_POINT ( 'NONE',  ( 0.7500000000000001100, 0.0000000000000000000, 3.061616997868381800E-017 ) ) ;
#277 = CARTESIAN_POINT ( 'NONE',  ( 0.7499999999999998900, 0.0000000000000000000, -0.7500000000000001100 ) ) ;
#278 = CARTESIAN_POINT ( 'NONE',  ( 0.7500000000000001100, 0.1875999999999999900, -0.4062499999999998900 ) ) ;
#279 = CARTESIAN_POINT ( 'NONE',  ( 0.7500000000000001100, 0.1875999999999999900, -0.3437499999999999400 ) ) ;
#280 = CARTESIAN_POINT ( 'NONE',  ( 0.0000000000000000000, 0.0000000000000000000, -0.7499999999999998900 ) ) ;
#281 =( LENGTH_UNIT ( ) NAMED_UNIT ( * ) SI_UNIT ( $, .METRE. ) );
#282 =( CONVERSION_BASED_UNIT ( 'INCH', #285 ) LENGTH_UNIT ( ) NAMED_UNIT ( #323 ) );
#283 =( NAMED_UNIT ( * ) PLANE_ANGLE_UNIT ( ) SI_UNIT ( $, .RADIAN. ) );
#284 =( NAMED_UNIT ( * ) SI_UNIT ( $, .STERADIAN. ) SOLID_ANGLE_UNIT ( ) );
#285 = LENGTH_MEASURE_WITH_UNIT ( LENGTH_MEASURE( 0.02539999999999999900 ), #281 );
#286 = STYLED_ITEM ( 'NONE', ( #300 ), #60 ) ;
#287 = PRESENTATION_LAYER_ASSIGNMENT (  '', '', ( #286 ) ) ;
#288 = MECHANICAL_DESIGN_GEOMETRIC_PRESENTATION_REPRESENTATION (  '', ( #286 ), #293 ) ;
#289 = LENGTH_MEASURE_WITH_UNIT ( LENGTH_MEASURE( 0.02539999999999999900 ), #301 );
#290 = AXIS2_PLACEMENT_3D ( 'NONE', #305, #306, #307 ) ;
#291 = PRODUCT_DEFINITION_FORMATION_WITH_SPECIFIED_SOURCE ( 'ANY', '', #325, .NOT_KNOWN. ) ;
#292 =( GEOMETRIC_REPRESENTATION_CONTEXT ( 3 ) GLOBAL_UNCERTAINTY_ASSIGNED_CONTEXT ( ( #62 ) ) GLOBAL_UNIT_ASSIGNED_CONTEXT ( ( #282, #283, #284 ) ) REPRESENTATION_CONTEXT ( 'NONE', 'WORKASPACE' ) );
#293 =( GEOMETRIC_REPRESENTATION_CONTEXT ( 3 ) GLOBAL_UNCERTAINTY_ASSIGNED_CONTEXT ( ( #59 ) ) GLOBAL_UNIT_ASSIGNED_CONTEXT ( ( #302, #303, #304 ) ) REPRESENTATION_CONTEXT ( 'NONE', 'WORKASPACE' ) );
#294 = APPLICATION_PROTOCOL_DEFINITION ( 'draft international standard', 'automotive_design', 1998, #311 ) ;
#295 = FILL_AREA_STYLE_COLOUR ( '', #36 ) ;
#296 = FILL_AREA_STYLE ('',( #295 ) ) ;
#297 = SURFACE_STYLE_FILL_AREA ( #296 ) ;
#298 = SURFACE_SIDE_STYLE ('',( #297 ) ) ;
#299 = SURFACE_STYLE_USAGE ( .BOTH. , #298 ) ;
#300 = PRESENTATION_STYLE_ASSIGNMENT (( #299 ) ) ;
#301 =( LENGTH_UNIT ( ) NAMED_UNIT ( * ) SI_UNIT ( $, .METRE. ) );
#302 =( CONVERSION_BASED_UNIT ( 'INCH', #289 ) LENGTH_UNIT ( ) NAMED_UNIT ( #324 ) );
#303 =( NAMED_UNIT ( * ) PLANE_ANGLE_UNIT ( ) SI_UNIT ( $, .RADIAN. ) );
#304 =( NAMED_UNIT ( * ) SI_UNIT ( $, .STERADIAN. ) SOLID_ANGLE_UNIT ( ) );
#305 = CARTESIAN_POINT ( 'NONE',  ( 0.0000000000000000000, 0.0000000000000000000, 0.0000000000000000000 ) ) ;
#306 = DIRECTION ( 'NONE',  ( 0.0000000000000000000, 0.0000000000000000000, 1.000000000000000000 ) ) ;
#307 = DIRECTION ( 'NONE',  ( 1.000000000000000000, 0.0000000000000000000, 0.0000000000000000000 ) ) ;
#308 = SHAPE_DEFINITION_REPRESENTATION ( #314, #60 ) ;
#309 = PRODUCT_CONTEXT ( 'NONE', #311, 'mechanical' ) ;
#310 = APPLICATION_PROTOCOL_DEFINITION ( 'draft international standard', 'automotive_design', 1998, #312 ) ;
#311 = APPLICATION_CONTEXT ( 'automotive_design' ) ;
#312 = APPLICATION_CONTEXT ( 'automotive_design' ) ;
#313 = MANIFOLD_SOLID_BREP ( 'Boss-Extrude2', #48 ) ;
#314 = PRODUCT_DEFINITION_SHAPE ( 'NONE', 'NONE',  #37 ) ;
#315 = PRODUCT_DEFINITION_CONTEXT ( 'detailed design', #312, 'design' ) ;
#316 = AXIS2_PLACEMENT_3D ( 'NONE', #120, #121, #122 ) ;
#317 = VECTOR ( 'NONE', #100, 39.37007874015748100 ) ;
#318 = VECTOR ( 'NONE', #103, 39.37007874015748100 ) ;
#319 =( GEOMETRIC_REPRESENTATION_CONTEXT ( 3 ) GLOBAL_UNCERTAINTY_ASSIGNED_CONTEXT ( ( #61 ) ) GLOBAL_UNIT_ASSIGNED_CONTEXT ( ( #249, #250, #251 ) ) REPRESENTATION_CONTEXT ( 'NONE', 'WORKASPACE' ) );
#320 =( GEOMETRIC_REPRESENTATION_CONTEXT ( 3 ) GLOBAL_UNCERTAINTY_ASSIGNED_CONTEXT ( ( #58 ) ) GLOBAL_UNIT_ASSIGNED_CONTEXT ( ( #264, #265, #266 ) ) REPRESENTATION_CONTEXT ( 'NONE', 'WORKASPACE' ) );
#321 = DIMENSIONAL_EXPONENTS ( 1.000000000000000000, 0.0000000000000000000, 0.0000000000000000000, 0.0000000000000000000, 0.0000000000000000000, 0.0000000000000000000, 0.0000000000000000000 ) ;
#322 = DIMENSIONAL_EXPONENTS ( 1.000000000000000000, 0.0000000000000000000, 0.0000000000000000000, 0.0000000000000000000, 0.0000000000000000000, 0.0000000000000000000, 0.0000000000000000000 ) ;
#323 = DIMENSIONAL_EXPONENTS ( 1.000000000000000000, 0.0000000000000000000, 0.0000000000000000000, 0.0000000000000000000, 0.0000000000000000000, 0.0000000000000000000, 0.0000000000000000000 ) ;
#324 = DIMENSIONAL_EXPONENTS ( 1.000000000000000000, 0.0000000000000000000, 0.0000000000000000000, 0.0000000000000000000, 0.0000000000000000000, 0.0000000000000000000, 0.0000000000000000000 ) ;
#325 = PRODUCT ( 'Q188F-M', 'Q188F-M', '', ( #309 ) ) ;
#326 = EDGE_LOOP ( 'NONE', ( #356, #358, #357, #359, #361, #360, #63, #64 ) ) ;
#327 = EDGE_LOOP ( 'NONE', ( #65, #67, #66, #69 ) ) ;
#328 = EDGE_LOOP ( 'NONE', ( #70, #72, #68, #71, #74, #73, #75, #78 ) ) ;
#329 = EDGE_LOOP ( 'NONE', ( #79, #80, #81, #76 ) ) ;
#330 = EDGE_LOOP ( 'NONE', ( #82, #83, #84, #85 ) ) ;
#331 = EDGE_LOOP ( 'NONE', ( #86, #87, #88, #90 ) ) ;
#332 = EDGE_LOOP ( 'NONE', ( #91, #92, #93, #89 ) ) ;
#333 = VERTEX_POINT ( 'NONE', #267 ) ;
#334 = VERTEX_POINT ( 'NONE', #268 ) ;
#335 = VERTEX_POINT ( 'NONE', #269 ) ;
#336 = VERTEX_POINT ( 'NONE', #270 ) ;
#337 = VERTEX_POINT ( 'NONE', #271 ) ;
#338 = VERTEX_POINT ( 'NONE', #272 ) ;
#339 = VERTEX_POINT ( 'NONE', #273 ) ;
#340 = VERTEX_POINT ( 'NONE', #274 ) ;
#341 = VERTEX_POINT ( 'NONE', #275 ) ;
#342 = VERTEX_POINT ( 'NONE', #276 ) ;
#343 = VERTEX_POINT ( 'NONE', #277 ) ;
#344 = VERTEX_POINT ( 'NONE', #278 ) ;
#345 = VERTEX_POINT ( 'NONE', #279 ) ;
#346 = VERTEX_POINT ( 'NONE', #280 ) ;
#347 = ORIENTED_EDGE ( 'NONE', *, *, #4, .F. ) ;
#348 = ORIENTED_EDGE ( 'NONE', *, *, #2, .F. ) ;
#349 = ORIENTED_EDGE ( 'NONE', *, *, #5, .T. ) ;
#350 = ORIENTED_EDGE ( 'NONE', *, *, #6, .T. ) ;
#351 = ORIENTED_EDGE ( 'NONE', *, *, #10, .T. ) ;
#352 = ORIENTED_EDGE ( 'NONE', *, *, #19, .T. ) ;
#353 = ORIENTED_EDGE ( 'NONE', *, *, #3, .F. ) ;
#354 = ORIENTED_EDGE ( 'NONE', *, *, #18, .F. ) ;
#355 = ORIENTED_EDGE ( 'NONE', *, *, #20, .T. ) ;
#356 = ORIENTED_EDGE ( 'NONE', *, *, #22, .T. ) ;
#357 = ORIENTED_EDGE ( 'NONE', *, *, #6, .F. ) ;
#358 = ORIENTED_EDGE ( 'NONE', *, *, #21, .F. ) ;
#359 = ORIENTED_EDGE ( 'NONE', *, *, #23, .F. ) ;
#360 = ORIENTED_EDGE ( 'NONE', *, *, #25, .T. ) ;
#361 = ORIENTED_EDGE ( 'NONE', *, *, #24, .F. ) ;
ENDSEC;
END-ISO-10303-21;
