ISO-10303-21;
HEADER;
FILE_DESCRIPTION (( 'STEP AP214' ),
    '1' );
FILE_NAME ('Q250P.step',
    '2012-04-20T21:03:27',
    ( '' ),
    ( '' ),
    'SwSTEP 2.0',
    'SolidWorks 2012',
    '' );
FILE_SCHEMA (( 'AUTOMOTIVE_DESIGN' ));
ENDSEC;

DATA;
#1 =( LENGTH_UNIT ( ) NAMED_UNIT ( * ) SI_UNIT ( $, .METRE. ) );
#2 =( CONVERSION_BASED_UNIT ( 'INCH', #85 ) LENGTH_UNIT ( ) NAMED_UNIT ( #96 ) );
#3 =( NAMED_UNIT ( * ) PLANE_ANGLE_UNIT ( ) SI_UNIT ( $, .RADIAN. ) );
#4 =( NAMED_UNIT ( * ) SI_UNIT ( $, .STERADIAN. ) SOLID_ANGLE_UNIT ( ) );
#5 = CARTESIAN_POINT ( 'NONE',  ( 1.999999999999999300, 0.2500000000000000000, -2.000000000000000000 ) ) ;
#6 = CARTESIAN_POINT ( 'NONE',  ( 0.0000000000000000000, 0.0000000000000000000, -2.000000000000000000 ) ) ;
#7 = CARTESIAN_POINT ( 'NONE',  ( 0.0000000000000000000, 0.2500000000000000000, -2.000000000000000000 ) ) ;
#8 = CARTESIAN_POINT ( 'NONE',  ( 2.000000000000000000, 0.0000000000000000000, -1.224646799147353200E-016 ) ) ;
#9 = CARTESIAN_POINT ( 'NONE',  ( 2.000000000000000000, 0.2500000000000000000, -1.224646799147353200E-016 ) ) ;
#10 = CARTESIAN_POINT ( 'NONE',  ( 0.0000000000000000000, 0.2500000000000000000, 0.0000000000000000000 ) ) ;
#11 = CARTESIAN_POINT ( 'NONE',  ( 0.0000000000000000000, 0.0000000000000000000, 0.0000000000000000000 ) ) ;
#12 =( LENGTH_UNIT ( ) NAMED_UNIT ( * ) SI_UNIT ( $, .METRE. ) );
#13 =( CONVERSION_BASED_UNIT ( 'INCH', #86 ) LENGTH_UNIT ( ) NAMED_UNIT ( #95 ) );
#14 =( NAMED_UNIT ( * ) PLANE_ANGLE_UNIT ( ) SI_UNIT ( $, .RADIAN. ) );
#15 =( NAMED_UNIT ( * ) SI_UNIT ( $, .STERADIAN. ) SOLID_ANGLE_UNIT ( ) );
#16 = DIRECTION ( 'NONE',  ( -6.123233995736766000E-017, 0.0000000000000000000, -1.000000000000000000 ) ) ;
#17 = DIRECTION ( 'NONE',  ( -1.000000000000000000, 0.0000000000000000000, 6.123233995736766000E-017 ) ) ;
#18 = PLANE ( 'NONE',  #144 ) ;
#19 = CARTESIAN_POINT ( 'NONE',  ( 1.999999999999999300, 0.2500000000000000000, -2.000000000000000000 ) ) ;
#20 = DIRECTION ( 'NONE',  ( -1.000000000000000000, 0.0000000000000000000, 2.731847993664263200E-016 ) ) ;
#21 = DIRECTION ( 'NONE',  ( 2.731847993664263200E-016, 0.0000000000000000000, 1.000000000000000000 ) ) ;
#22 = PLANE ( 'NONE',  #78 ) ;
#23 = CARTESIAN_POINT ( 'NONE',  ( 0.0000000000000000000, 0.2500000000000000000, -2.000000000000000000 ) ) ;
#24 = DIRECTION ( 'NONE',  ( 0.0000000000000000000, 0.0000000000000000000, 1.000000000000000000 ) ) ;
#25 = DIRECTION ( 'NONE',  ( 1.000000000000000000, 0.0000000000000000000, -0.0000000000000000000 ) ) ;
#26 = PLANE ( 'NONE',  #149 ) ;
#27 = CARTESIAN_POINT ( 'NONE',  ( 0.0000000000000000000, 0.2500000000000000000, 0.0000000000000000000 ) ) ;
#28 = DIRECTION ( 'NONE',  ( 1.000000000000000000, -0.0000000000000000000, 0.0000000000000000000 ) ) ;
#29 = DIRECTION ( 'NONE',  ( 0.0000000000000000000, 0.0000000000000000000, -1.000000000000000000 ) ) ;
#30 = PLANE ( 'NONE',  #52 ) ;
#31 = CARTESIAN_POINT ( 'NONE',  ( 0.0000000000000000000, 0.2500000000000000000, 0.0000000000000000000 ) ) ;
#32 = DIRECTION ( 'NONE',  ( 0.0000000000000000000, -1.000000000000000000, -0.0000000000000000000 ) ) ;
#33 = DIRECTION ( 'NONE',  ( 0.0000000000000000000, 0.0000000000000000000, -1.000000000000000000 ) ) ;
#34 = PLANE ( 'NONE',  #77 ) ;
#35 = CARTESIAN_POINT ( 'NONE',  ( 0.0000000000000000000, 0.0000000000000000000, 0.0000000000000000000 ) ) ;
#36 = DIRECTION ( 'NONE',  ( 0.0000000000000000000, -1.000000000000000000, -0.0000000000000000000 ) ) ;
#37 = DIRECTION ( 'NONE',  ( 0.0000000000000000000, 0.0000000000000000000, -1.000000000000000000 ) ) ;
#38 = LINE ( 'NONE', #39, #81 ) ;
#39 = CARTESIAN_POINT ( 'NONE',  ( 2.000000000000000000, 0.0000000000000000000, -1.224646799147353200E-016 ) ) ;
#40 = DIRECTION ( 'NONE',  ( 1.000000000000000000, -0.0000000000000000000, -6.123233995736766000E-017 ) ) ;
#41 = CARTESIAN_POINT ( 'NONE',  ( 1.999999999999999300, 0.0000000000000000000, -2.000000000000000000 ) ) ;
#42 = LINE ( 'NONE', #43, #83 ) ;
#43 = CARTESIAN_POINT ( 'NONE',  ( 0.0000000000000000000, 0.2500000000000000000, 0.0000000000000000000 ) ) ;
#44 = DIRECTION ( 'NONE',  ( -0.0000000000000000000, -0.0000000000000000000, 1.000000000000000000 ) ) ;
#45 = FILL_AREA_STYLE_COLOUR ( '', #53 ) ;
#46 = FILL_AREA_STYLE ('',( #45 ) ) ;
#47 = SURFACE_STYLE_FILL_AREA ( #46 ) ;
#48 = SURFACE_SIDE_STYLE ('',( #47 ) ) ;
#49 = SURFACE_STYLE_USAGE ( .BOTH. , #48 ) ;
#50 = PRESENTATION_STYLE_ASSIGNMENT (( #49 ) ) ;
#51 = FACE_OUTER_BOUND ( 'NONE', #107, .T. ) ;
#52 = AXIS2_PLACEMENT_3D ( 'NONE', #31, #32, #33 ) ;
#53 = COLOUR_RGB ( '',0.5686274509803921400, 0.5686274509803921400, 0.5882352941176470800 ) ;
#54 = PRODUCT_RELATED_PRODUCT_CATEGORY ( 'part', '', ( #93 ) ) ;
#55 = EDGE_CURVE ( 'NONE', #200, #199, #108, .T. ) ;
#56 = PRODUCT_DEFINITION ( 'UNKNOWN', '', #92, #98 ) ;
#57 = COLOUR_RGB ( '',0.5686274509803921400, 0.5686274509803921400, 0.5882352941176470800 ) ;
#58 = EDGE_CURVE ( 'NONE', #191, #202, #112, .T. ) ;
#59 = EDGE_CURVE ( 'NONE', #190, #192, #115, .T. ) ;
#60 = EDGE_CURVE ( 'NONE', #189, #191, #118, .T. ) ;
#61 = EDGE_CURVE ( 'NONE', #192, #191, #121, .T. ) ;
#62 = EDGE_CURVE ( 'NONE', #200, #190, #124, .T. ) ;
#63 = EDGE_CURVE ( 'NONE', #199, #189, #127, .T. ) ;
#64 = EDGE_CURVE ( 'NONE', #190, #189, #130, .T. ) ;
#65 = EDGE_CURVE ( 'NONE', #201, #202, #133, .T. ) ;
#66 = EDGE_CURVE ( 'NONE', #201, #200, #136, .T. ) ;
#67 = ADVANCED_FACE ( 'NONE', ( #153 ), #111, .F. ) ;
#68 = ADVANCED_FACE ( 'NONE', ( #148 ), #18, .F. ) ;
#69 = ADVANCED_FACE ( 'NONE', ( #145 ), #22, .F. ) ;
#70 = ADVANCED_FACE ( 'NONE', ( #80 ), #26, .F. ) ;
#71 = ADVANCED_FACE ( 'NONE', ( #79 ), #30, .F. ) ;
#72 = ADVANCED_FACE ( 'NONE', ( #51 ), #34, .T. ) ;
#73 = EDGE_CURVE ( 'NONE', #202, #199, #38, .T. ) ;
#74 = EDGE_CURVE ( 'NONE', #192, #201, #42, .T. ) ;
#75 = APPLICATION_CONTEXT ( 'automotive_design' ) ;
#76 = APPLICATION_CONTEXT ( 'automotive_design' ) ;
#77 = AXIS2_PLACEMENT_3D ( 'NONE', #35, #36, #37 ) ;
#78 = AXIS2_PLACEMENT_3D ( 'NONE', #23, #24, #25 ) ;
#79 = FACE_OUTER_BOUND ( 'NONE', #106, .T. ) ;
#80 = FACE_OUTER_BOUND ( 'NONE', #105, .T. ) ;
#81 = VECTOR ( 'NONE', #40, 39.37007874015748100 ) ;
#82 = PRESENTATION_LAYER_ASSIGNMENT (  '', '', ( #142 ) ) ;
#83 = VECTOR ( 'NONE', #44, 39.37007874015748100 ) ;
#84 = MECHANICAL_DESIGN_GEOMETRIC_PRESENTATION_REPRESENTATION (  '', ( #142 ), #175 ) ;
#85 = LENGTH_MEASURE_WITH_UNIT ( LENGTH_MEASURE( 0.02539999999999999900 ), #1 );
#86 = LENGTH_MEASURE_WITH_UNIT ( LENGTH_MEASURE( 0.02539999999999999900 ), #12 );
#87 = STYLED_ITEM ( 'NONE', ( #164 ), #102 ) ;
#88 = PRESENTATION_LAYER_ASSIGNMENT (  '', '', ( #87 ) ) ;
#89 = MECHANICAL_DESIGN_GEOMETRIC_PRESENTATION_REPRESENTATION (  '', ( #87 ), #177 ) ;
#90 = LENGTH_MEASURE_WITH_UNIT ( LENGTH_MEASURE( 0.02539999999999999900 ), #165 );
#91 = AXIS2_PLACEMENT_3D ( 'NONE', #169, #170, #171 ) ;
#92 = PRODUCT_DEFINITION_FORMATION_WITH_SPECIFIED_SOURCE ( 'ANY', '', #93, .NOT_KNOWN. ) ;
#93 = PRODUCT ( 'Q250P', 'Q250P', '', ( #173 ) ) ;
#94 = DIMENSIONAL_EXPONENTS ( 1.000000000000000000, 0.0000000000000000000, 0.0000000000000000000, 0.0000000000000000000, 0.0000000000000000000, 0.0000000000000000000, 0.0000000000000000000 ) ;
#95 = DIMENSIONAL_EXPONENTS ( 1.000000000000000000, 0.0000000000000000000, 0.0000000000000000000, 0.0000000000000000000, 0.0000000000000000000, 0.0000000000000000000, 0.0000000000000000000 ) ;
#96 = DIMENSIONAL_EXPONENTS ( 1.000000000000000000, 0.0000000000000000000, 0.0000000000000000000, 0.0000000000000000000, 0.0000000000000000000, 0.0000000000000000000, 0.0000000000000000000 ) ;
#97 = PRODUCT_DEFINITION_SHAPE ( 'NONE', 'NONE',  #56 ) ;
#98 = PRODUCT_DEFINITION_CONTEXT ( 'detailed design', #76, 'design' ) ;
#99 = MANIFOLD_SOLID_BREP ( 'Boss-Extrude1', #152 ) ;
#100 = UNCERTAINTY_MEASURE_WITH_UNIT (LENGTH_MEASURE( 1.000000000000000100E-005 ), #2, 'distance_accuracy_value', 'NONE');
#101 = UNCERTAINTY_MEASURE_WITH_UNIT (LENGTH_MEASURE( 1.000000000000000100E-005 ), #13, 'distance_accuracy_value', 'NONE');
#102 = ADVANCED_BREP_SHAPE_REPRESENTATION ( 'Q250P', ( #99, #91 ), #176 ) ;
#103 = UNCERTAINTY_MEASURE_WITH_UNIT (LENGTH_MEASURE( 1.000000000000000100E-005 ), #166, 'distance_accuracy_value', 'NONE');
#104 = EDGE_LOOP ( 'NONE', ( #188, #194, #193, #195 ) ) ;
#105 = EDGE_LOOP ( 'NONE', ( #209, #178, #208, #180 ) ) ;
#106 = EDGE_LOOP ( 'NONE', ( #181, #182, #183, #179 ) ) ;
#107 = EDGE_LOOP ( 'NONE', ( #185, #186, #187, #184 ) ) ;
#108 = LINE ( 'NONE', #109, #154 ) ;
#109 = CARTESIAN_POINT ( 'NONE',  ( 2.000000000000000000, 0.2500000000000000000, -1.224646799147353200E-016 ) ) ;
#110 = DIRECTION ( 'NONE',  ( -0.0000000000000000000, -1.000000000000000000, -0.0000000000000000000 ) ) ;
#111 = PLANE ( 'NONE',  #146 ) ;
#112 = LINE ( 'NONE', #113, #155 ) ;
#113 = CARTESIAN_POINT ( 'NONE',  ( 0.0000000000000000000, 0.0000000000000000000, 0.0000000000000000000 ) ) ;
#114 = DIRECTION ( 'NONE',  ( -0.0000000000000000000, -0.0000000000000000000, 1.000000000000000000 ) ) ;
#115 = LINE ( 'NONE', #116, #156 ) ;
#116 = CARTESIAN_POINT ( 'NONE',  ( 0.0000000000000000000, 0.2500000000000000000, -2.000000000000000000 ) ) ;
#117 = DIRECTION ( 'NONE',  ( -1.000000000000000000, -0.0000000000000000000, -0.0000000000000000000 ) ) ;
#118 = LINE ( 'NONE', #119, #157 ) ;
#119 = CARTESIAN_POINT ( 'NONE',  ( 0.0000000000000000000, 0.0000000000000000000, -2.000000000000000000 ) ) ;
#120 = DIRECTION ( 'NONE',  ( -1.000000000000000000, -0.0000000000000000000, -0.0000000000000000000 ) ) ;
#121 = LINE ( 'NONE', #122, #143 ) ;
#122 = CARTESIAN_POINT ( 'NONE',  ( 0.0000000000000000000, 0.2500000000000000000, -2.000000000000000000 ) ) ;
#123 = DIRECTION ( 'NONE',  ( -0.0000000000000000000, -1.000000000000000000, -0.0000000000000000000 ) ) ;
#124 = LINE ( 'NONE', #125, #140 ) ;
#125 = CARTESIAN_POINT ( 'NONE',  ( 1.999999999999999300, 0.2500000000000000000, -2.000000000000000000 ) ) ;
#126 = DIRECTION ( 'NONE',  ( -2.731847993664263200E-016, -0.0000000000000000000, -1.000000000000000000 ) ) ;
#127 = LINE ( 'NONE', #128, #151 ) ;
#128 = CARTESIAN_POINT ( 'NONE',  ( 1.999999999999999300, 0.0000000000000000000, -2.000000000000000000 ) ) ;
#129 = DIRECTION ( 'NONE',  ( -2.731847993664263200E-016, -0.0000000000000000000, -1.000000000000000000 ) ) ;
#130 = LINE ( 'NONE', #131, #147 ) ;
#131 = CARTESIAN_POINT ( 'NONE',  ( 1.999999999999999300, 0.2500000000000000000, -2.000000000000000000 ) ) ;
#132 = DIRECTION ( 'NONE',  ( -0.0000000000000000000, -1.000000000000000000, -0.0000000000000000000 ) ) ;
#133 = LINE ( 'NONE', #134, #141 ) ;
#134 = CARTESIAN_POINT ( 'NONE',  ( 0.0000000000000000000, 0.2500000000000000000, 0.0000000000000000000 ) ) ;
#135 = DIRECTION ( 'NONE',  ( -0.0000000000000000000, -1.000000000000000000, -0.0000000000000000000 ) ) ;
#136 = LINE ( 'NONE', #137, #150 ) ;
#137 = CARTESIAN_POINT ( 'NONE',  ( 2.000000000000000000, 0.2500000000000000000, -1.224646799147353200E-016 ) ) ;
#138 = DIRECTION ( 'NONE',  ( 1.000000000000000000, -0.0000000000000000000, -6.123233995736766000E-017 ) ) ;
#139 = CARTESIAN_POINT ( 'NONE',  ( 2.000000000000000000, 0.2500000000000000000, -1.224646799147353200E-016 ) ) ;
#140 = VECTOR ( 'NONE', #126, 39.37007874015748100 ) ;
#141 = VECTOR ( 'NONE', #135, 39.37007874015748100 ) ;
#142 = STYLED_ITEM ( 'NONE', ( #50 ), #99 ) ;
#143 = VECTOR ( 'NONE', #123, 39.37007874015748100 ) ;
#144 = AXIS2_PLACEMENT_3D ( 'NONE', #19, #20, #21 ) ;
#145 = FACE_OUTER_BOUND ( 'NONE', #211, .T. ) ;
#146 = AXIS2_PLACEMENT_3D ( 'NONE', #139, #16, #17 ) ;
#147 = VECTOR ( 'NONE', #132, 39.37007874015748100 ) ;
#148 = FACE_OUTER_BOUND ( 'NONE', #210, .T. ) ;
#149 = AXIS2_PLACEMENT_3D ( 'NONE', #27, #28, #29 ) ;
#150 = VECTOR ( 'NONE', #138, 39.37007874015748100 ) ;
#151 = VECTOR ( 'NONE', #129, 39.37007874015748100 ) ;
#152 = CLOSED_SHELL ( 'NONE', ( #67, #68, #69, #70, #71, #72 ) ) ;
#153 = FACE_OUTER_BOUND ( 'NONE', #104, .T. ) ;
#154 = VECTOR ( 'NONE', #110, 39.37007874015748100 ) ;
#155 = VECTOR ( 'NONE', #114, 39.37007874015748100 ) ;
#156 = VECTOR ( 'NONE', #117, 39.37007874015748100 ) ;
#157 = VECTOR ( 'NONE', #120, 39.37007874015748100 ) ;
#158 = APPLICATION_PROTOCOL_DEFINITION ( 'draft international standard', 'automotive_design', 1998, #75 ) ;
#159 = FILL_AREA_STYLE_COLOUR ( '', #57 ) ;
#160 = FILL_AREA_STYLE ('',( #159 ) ) ;
#161 = SURFACE_STYLE_FILL_AREA ( #160 ) ;
#162 = SURFACE_SIDE_STYLE ('',( #161 ) ) ;
#163 = SURFACE_STYLE_USAGE ( .BOTH. , #162 ) ;
#164 = PRESENTATION_STYLE_ASSIGNMENT (( #163 ) ) ;
#165 =( LENGTH_UNIT ( ) NAMED_UNIT ( * ) SI_UNIT ( $, .METRE. ) );
#166 =( CONVERSION_BASED_UNIT ( 'INCH', #90 ) LENGTH_UNIT ( ) NAMED_UNIT ( #94 ) );
#167 =( NAMED_UNIT ( * ) PLANE_ANGLE_UNIT ( ) SI_UNIT ( $, .RADIAN. ) );
#168 =( NAMED_UNIT ( * ) SI_UNIT ( $, .STERADIAN. ) SOLID_ANGLE_UNIT ( ) );
#169 = CARTESIAN_POINT ( 'NONE',  ( 0.0000000000000000000, 0.0000000000000000000, 0.0000000000000000000 ) ) ;
#170 = DIRECTION ( 'NONE',  ( 0.0000000000000000000, 0.0000000000000000000, 1.000000000000000000 ) ) ;
#171 = DIRECTION ( 'NONE',  ( 1.000000000000000000, 0.0000000000000000000, 0.0000000000000000000 ) ) ;
#172 = SHAPE_DEFINITION_REPRESENTATION ( #97, #102 ) ;
#173 = PRODUCT_CONTEXT ( 'NONE', #75, 'mechanical' ) ;
#174 = APPLICATION_PROTOCOL_DEFINITION ( 'draft international standard', 'automotive_design', 1998, #76 ) ;
#175 =( GEOMETRIC_REPRESENTATION_CONTEXT ( 3 ) GLOBAL_UNCERTAINTY_ASSIGNED_CONTEXT ( ( #100 ) ) GLOBAL_UNIT_ASSIGNED_CONTEXT ( ( #2, #3, #4 ) ) REPRESENTATION_CONTEXT ( 'NONE', 'WORKASPACE' ) );
#176 =( GEOMETRIC_REPRESENTATION_CONTEXT ( 3 ) GLOBAL_UNCERTAINTY_ASSIGNED_CONTEXT ( ( #101 ) ) GLOBAL_UNIT_ASSIGNED_CONTEXT ( ( #13, #14, #15 ) ) REPRESENTATION_CONTEXT ( 'NONE', 'WORKASPACE' ) );
#177 =( GEOMETRIC_REPRESENTATION_CONTEXT ( 3 ) GLOBAL_UNCERTAINTY_ASSIGNED_CONTEXT ( ( #103 ) ) GLOBAL_UNIT_ASSIGNED_CONTEXT ( ( #166, #167, #168 ) ) REPRESENTATION_CONTEXT ( 'NONE', 'WORKASPACE' ) );
#178 = ORIENTED_EDGE ( 'NONE', *, *, #65, .F. ) ;
#179 = ORIENTED_EDGE ( 'NONE', *, *, #74, .T. ) ;
#180 = ORIENTED_EDGE ( 'NONE', *, *, #61, .T. ) ;
#181 = ORIENTED_EDGE ( 'NONE', *, *, #66, .T. ) ;
#182 = ORIENTED_EDGE ( 'NONE', *, *, #62, .T. ) ;
#183 = ORIENTED_EDGE ( 'NONE', *, *, #59, .T. ) ;
#184 = ORIENTED_EDGE ( 'NONE', *, *, #63, .F. ) ;
#185 = ORIENTED_EDGE ( 'NONE', *, *, #73, .F. ) ;
#186 = ORIENTED_EDGE ( 'NONE', *, *, #58, .F. ) ;
#187 = ORIENTED_EDGE ( 'NONE', *, *, #60, .F. ) ;
#188 = ORIENTED_EDGE ( 'NONE', *, *, #73, .T. ) ;
#189 = VERTEX_POINT ( 'NONE', #41 ) ;
#190 = VERTEX_POINT ( 'NONE', #5 ) ;
#191 = VERTEX_POINT ( 'NONE', #6 ) ;
#192 = VERTEX_POINT ( 'NONE', #7 ) ;
#193 = ORIENTED_EDGE ( 'NONE', *, *, #66, .F. ) ;
#194 = ORIENTED_EDGE ( 'NONE', *, *, #55, .F. ) ;
#195 = ORIENTED_EDGE ( 'NONE', *, *, #65, .T. ) ;
#196 = ORIENTED_EDGE ( 'NONE', *, *, #63, .T. ) ;
#197 = ORIENTED_EDGE ( 'NONE', *, *, #62, .F. ) ;
#198 = ORIENTED_EDGE ( 'NONE', *, *, #64, .F. ) ;
#199 = VERTEX_POINT ( 'NONE', #8 ) ;
#200 = VERTEX_POINT ( 'NONE', #9 ) ;
#201 = VERTEX_POINT ( 'NONE', #10 ) ;
#202 = VERTEX_POINT ( 'NONE', #11 ) ;
#203 = ORIENTED_EDGE ( 'NONE', *, *, #55, .T. ) ;
#204 = ORIENTED_EDGE ( 'NONE', *, *, #60, .T. ) ;
#205 = ORIENTED_EDGE ( 'NONE', *, *, #59, .F. ) ;
#206 = ORIENTED_EDGE ( 'NONE', *, *, #61, .F. ) ;
#207 = ORIENTED_EDGE ( 'NONE', *, *, #64, .T. ) ;
#208 = ORIENTED_EDGE ( 'NONE', *, *, #74, .F. ) ;
#209 = ORIENTED_EDGE ( 'NONE', *, *, #58, .T. ) ;
#210 = EDGE_LOOP ( 'NONE', ( #196, #198, #197, #203 ) ) ;
#211 = EDGE_LOOP ( 'NONE', ( #204, #206, #205, #207 ) ) ;
ENDSEC;
END-ISO-10303-21;
