ISO-10303-21;
HEADER;
FILE_DESCRIPTION (( 'STEP AP214' ),
    '1' );
FILE_NAME ('Q500H.step',
    '2012-04-20T21:03:29',
    ( '' ),
    ( '' ),
    'SwSTEP 2.0',
    'SolidWorks 2012',
    '' );
FILE_SCHEMA (( 'AUTOMOTIVE_DESIGN' ));
ENDSEC;

DATA;
#1 = APPLICATION_PROTOCOL_DEFINITION ( 'draft international standard', 'automotive_design', 1998, #18 ) ;
#2 = FILL_AREA_STYLE_COLOUR ( '', #83 ) ;
#3 = FILL_AREA_STYLE ('',( #2 ) ) ;
#4 = SURFACE_STYLE_FILL_AREA ( #3 ) ;
#5 = SURFACE_SIDE_STYLE ('',( #4 ) ) ;
#6 = SURFACE_STYLE_USAGE ( .BOTH. , #5 ) ;
#7 = PRESENTATION_STYLE_ASSIGNMENT (( #6 ) ) ;
#8 =( LENGTH_UNIT ( ) NAMED_UNIT ( * ) SI_UNIT ( $, .METRE. ) );
#9 =( CONVERSION_BASED_UNIT ( 'INCH', #128 ) LENGTH_UNIT ( ) NAMED_UNIT ( #115 ) );
#10 =( NAMED_UNIT ( * ) PLANE_ANGLE_UNIT ( ) SI_UNIT ( $, .RADIAN. ) );
#11 =( NAMED_UNIT ( * ) SI_UNIT ( $, .STERADIAN. ) SOLID_ANGLE_UNIT ( ) );
#12 = CARTESIAN_POINT ( 'NONE',  ( 0.0000000000000000000, 0.0000000000000000000, 0.0000000000000000000 ) ) ;
#13 = DIRECTION ( 'NONE',  ( 0.0000000000000000000, 0.0000000000000000000, 1.000000000000000000 ) ) ;
#14 = DIRECTION ( 'NONE',  ( 1.000000000000000000, 0.0000000000000000000, 0.0000000000000000000 ) ) ;
#15 = SHAPE_DEFINITION_REPRESENTATION ( #117, #107 ) ;
#16 = PRODUCT_CONTEXT ( 'NONE', #18, 'mechanical' ) ;
#17 = APPLICATION_PROTOCOL_DEFINITION ( 'draft international standard', 'automotive_design', 1998, #175 ) ;
#18 = APPLICATION_CONTEXT ( 'automotive_design' ) ;
#19 = DIRECTION ( 'NONE',  ( 1.365923996832131900E-016, -0.0000000000000000000, 1.000000000000000000 ) ) ;
#20 = DIRECTION ( 'NONE',  ( 1.000000000000000000, 0.0000000000000000000, -1.365923996832131900E-016 ) ) ;
#21 = PLANE ( 'NONE',  #71 ) ;
#22 = CARTESIAN_POINT ( 'NONE',  ( 0.0000000000000000000, 0.5000000000000000000, 0.0000000000000000000 ) ) ;
#23 = DIRECTION ( 'NONE',  ( 1.000000000000000000, -0.0000000000000000000, 0.0000000000000000000 ) ) ;
#24 = DIRECTION ( 'NONE',  ( 0.0000000000000000000, 0.0000000000000000000, -1.000000000000000000 ) ) ;
#25 = PLANE ( 'NONE',  #104 ) ;
#26 = CARTESIAN_POINT ( 'NONE',  ( 0.0000000000000000000, 0.5000000000000000000, 0.0000000000000000000 ) ) ;
#27 = DIRECTION ( 'NONE',  ( 0.0000000000000000000, -1.000000000000000000, 0.0000000000000000000 ) ) ;
#28 = DIRECTION ( 'NONE',  ( 0.0000000000000000000, 0.0000000000000000000, -1.000000000000000000 ) ) ;
#29 = PLANE ( 'NONE',  #73 ) ;
#30 = CARTESIAN_POINT ( 'NONE',  ( 0.0000000000000000000, 0.0000000000000000000, 0.0000000000000000000 ) ) ;
#31 = DIRECTION ( 'NONE',  ( 0.0000000000000000000, -1.000000000000000000, 0.0000000000000000000 ) ) ;
#32 = DIRECTION ( 'NONE',  ( 0.0000000000000000000, 0.0000000000000000000, -1.000000000000000000 ) ) ;
#33 = LINE ( 'NONE', #34, #102 ) ;
#34 = CARTESIAN_POINT ( 'NONE',  ( 0.9999999999999998900, 0.0000000000000000000, -0.9999999999999996700 ) ) ;
#35 = DIRECTION ( 'NONE',  ( -1.365923996832131900E-016, -0.0000000000000000000, -1.000000000000000000 ) ) ;
#36 = CARTESIAN_POINT ( 'NONE',  ( 0.0000000000000000000, 0.0000000000000000000, 0.0000000000000000000 ) ) ;
#37 = LINE ( 'NONE', #38, #111 ) ;
#38 = CARTESIAN_POINT ( 'NONE',  ( 0.9999999999999998900, 0.5000000000000000000, -0.9999999999999996700 ) ) ;
#39 = DIRECTION ( 'NONE',  ( -0.0000000000000000000, -1.000000000000000000, -0.0000000000000000000 ) ) ;
#40 = LINE ( 'NONE', #41, #137 ) ;
#41 = CARTESIAN_POINT ( 'NONE',  ( 0.0000000000000000000, 0.5000000000000000000, 0.0000000000000000000 ) ) ;
#42 = DIRECTION ( 'NONE',  ( -0.0000000000000000000, -1.000000000000000000, -0.0000000000000000000 ) ) ;
#43 = LINE ( 'NONE', #44, #119 ) ;
#44 = CARTESIAN_POINT ( 'NONE',  ( 1.000000000000000000, 0.5000000000000000000, 1.224646799147353200E-016 ) ) ;
#45 = DIRECTION ( 'NONE',  ( 1.000000000000000000, -0.0000000000000000000, 1.224646799147353200E-016 ) ) ;
#46 = LINE ( 'NONE', #47, #121 ) ;
#47 = CARTESIAN_POINT ( 'NONE',  ( 1.000000000000000000, 0.5000000000000000000, 1.224646799147353200E-016 ) ) ;
#48 = DIRECTION ( 'NONE',  ( -0.0000000000000000000, -1.000000000000000000, -0.0000000000000000000 ) ) ;
#49 = FILL_AREA_STYLE_COLOUR ( '', #80 ) ;
#50 = FILL_AREA_STYLE ('',( #49 ) ) ;
#51 = SURFACE_STYLE_FILL_AREA ( #50 ) ;
#52 = SURFACE_SIDE_STYLE ('',( #51 ) ) ;
#53 = SURFACE_STYLE_USAGE ( .BOTH. , #52 ) ;
#54 = PRESENTATION_STYLE_ASSIGNMENT (( #53 ) ) ;
#55 =( LENGTH_UNIT ( ) NAMED_UNIT ( * ) SI_UNIT ( $, .METRE. ) );
#56 =( CONVERSION_BASED_UNIT ( 'INCH', #123 ) LENGTH_UNIT ( ) NAMED_UNIT ( #114 ) );
#57 =( NAMED_UNIT ( * ) PLANE_ANGLE_UNIT ( ) SI_UNIT ( $, .RADIAN. ) );
#58 =( NAMED_UNIT ( * ) SI_UNIT ( $, .STERADIAN. ) SOLID_ANGLE_UNIT ( ) );
#59 = CARTESIAN_POINT ( 'NONE',  ( 1.000000000000000000, 0.0000000000000000000, 1.224646799147353200E-016 ) ) ;
#60 = CARTESIAN_POINT ( 'NONE',  ( 1.000000000000000000, 0.5000000000000000000, 1.224646799147353200E-016 ) ) ;
#61 = CARTESIAN_POINT ( 'NONE',  ( 0.0000000000000000000, 0.5000000000000000000, 0.0000000000000000000 ) ) ;
#62 = CARTESIAN_POINT ( 'NONE',  ( 0.9999999999999998900, 0.0000000000000000000, -0.9999999999999996700 ) ) ;
#63 = CARTESIAN_POINT ( 'NONE',  ( 0.9999999999999998900, 0.5000000000000000000, -0.9999999999999996700 ) ) ;
#64 = CARTESIAN_POINT ( 'NONE',  ( 0.0000000000000000000, 0.0000000000000000000, -0.9999999999999995600 ) ) ;
#65 = CARTESIAN_POINT ( 'NONE',  ( 0.0000000000000000000, 0.5000000000000000000, -0.9999999999999995600 ) ) ;
#66 =( LENGTH_UNIT ( ) NAMED_UNIT ( * ) SI_UNIT ( $, .METRE. ) );
#67 =( CONVERSION_BASED_UNIT ( 'INCH', #124 ) LENGTH_UNIT ( ) NAMED_UNIT ( #113 ) );
#68 =( NAMED_UNIT ( * ) PLANE_ANGLE_UNIT ( ) SI_UNIT ( $, .RADIAN. ) );
#69 =( NAMED_UNIT ( * ) SI_UNIT ( $, .STERADIAN. ) SOLID_ANGLE_UNIT ( ) );
#70 = FACE_OUTER_BOUND ( 'NONE', #194, .T. ) ;
#71 = AXIS2_PLACEMENT_3D ( 'NONE', #22, #23, #24 ) ;
#72 = VECTOR ( 'NONE', #162, 39.37007874015748100 ) ;
#73 = AXIS2_PLACEMENT_3D ( 'NONE', #30, #31, #32 ) ;
#74 = VECTOR ( 'NONE', #165, 39.37007874015748100 ) ;
#75 = AXIS2_PLACEMENT_3D ( 'NONE', #174, #19, #20 ) ;
#76 = VECTOR ( 'NONE', #159, 39.37007874015748100 ) ;
#77 = FACE_OUTER_BOUND ( 'NONE', #195, .T. ) ;
#78 = FACE_OUTER_BOUND ( 'NONE', #141, .T. ) ;
#79 = AXIS2_PLACEMENT_3D ( 'NONE', #166, #167, #168 ) ;
#80 = COLOUR_RGB ( '',0.5686274509803921400, 0.5686274509803921400, 0.5882352941176470800 ) ;
#81 = EDGE_CURVE ( 'NONE', #186, #187, #144, .T. ) ;
#82 = PRODUCT_DEFINITION ( 'UNKNOWN', '', #130, #118 ) ;
#83 = COLOUR_RGB ( '',0.5686274509803921400, 0.5686274509803921400, 0.5882352941176470800 ) ;
#84 = PRODUCT_RELATED_PRODUCT_CATEGORY ( 'part', '', ( #112 ) ) ;
#85 = EDGE_CURVE ( 'NONE', #192, #186, #148, .T. ) ;
#86 = EDGE_CURVE ( 'NONE', #191, #193, #151, .T. ) ;
#87 = EDGE_CURVE ( 'NONE', #190, #192, #154, .T. ) ;
#88 = EDGE_CURVE ( 'NONE', #193, #192, #157, .T. ) ;
#89 = EDGE_CURVE ( 'NONE', #188, #191, #160, .T. ) ;
#90 = EDGE_CURVE ( 'NONE', #193, #189, #163, .T. ) ;
#91 = ADVANCED_FACE ( 'NONE', ( #131 ), #147, .F. ) ;
#92 = ADVANCED_FACE ( 'NONE', ( #70 ), #169, .F. ) ;
#93 = ADVANCED_FACE ( 'NONE', ( #77 ), #173, .F. ) ;
#94 = ADVANCED_FACE ( 'NONE', ( #78 ), #21, .F. ) ;
#95 = ADVANCED_FACE ( 'NONE', ( #103 ), #25, .F. ) ;
#96 = ADVANCED_FACE ( 'NONE', ( #105 ), #29, .T. ) ;
#97 = EDGE_CURVE ( 'NONE', #187, #190, #33, .T. ) ;
#98 = EDGE_CURVE ( 'NONE', #191, #190, #37, .T. ) ;
#99 = EDGE_CURVE ( 'NONE', #189, #186, #40, .T. ) ;
#100 = EDGE_CURVE ( 'NONE', #189, #188, #43, .T. ) ;
#101 = EDGE_CURVE ( 'NONE', #188, #187, #46, .T. ) ;
#102 = VECTOR ( 'NONE', #35, 39.37007874015748100 ) ;
#103 = FACE_OUTER_BOUND ( 'NONE', #142, .T. ) ;
#104 = AXIS2_PLACEMENT_3D ( 'NONE', #26, #27, #28 ) ;
#105 = FACE_OUTER_BOUND ( 'NONE', #143, .T. ) ;
#106 = STYLED_ITEM ( 'NONE', ( #54 ), #116 ) ;
#107 = ADVANCED_BREP_SHAPE_REPRESENTATION ( 'Q500H', ( #116, #129 ), #177 ) ;
#108 = UNCERTAINTY_MEASURE_WITH_UNIT (LENGTH_MEASURE( 1.000000000000000100E-005 ), #9, 'distance_accuracy_value', 'NONE');
#109 = UNCERTAINTY_MEASURE_WITH_UNIT (LENGTH_MEASURE( 1.000000000000000100E-005 ), #56, 'distance_accuracy_value', 'NONE');
#110 = UNCERTAINTY_MEASURE_WITH_UNIT (LENGTH_MEASURE( 1.000000000000000100E-005 ), #67, 'distance_accuracy_value', 'NONE');
#111 = VECTOR ( 'NONE', #39, 39.37007874015748100 ) ;
#112 = PRODUCT ( 'Q500H', 'Q500H', '', ( #16 ) ) ;
#113 = DIMENSIONAL_EXPONENTS ( 1.000000000000000000, 0.0000000000000000000, 0.0000000000000000000, 0.0000000000000000000, 0.0000000000000000000, 0.0000000000000000000, 0.0000000000000000000 ) ;
#114 = DIMENSIONAL_EXPONENTS ( 1.000000000000000000, 0.0000000000000000000, 0.0000000000000000000, 0.0000000000000000000, 0.0000000000000000000, 0.0000000000000000000, 0.0000000000000000000 ) ;
#115 = DIMENSIONAL_EXPONENTS ( 1.000000000000000000, 0.0000000000000000000, 0.0000000000000000000, 0.0000000000000000000, 0.0000000000000000000, 0.0000000000000000000, 0.0000000000000000000 ) ;
#116 = MANIFOLD_SOLID_BREP ( 'Boss-Extrude1', #132 ) ;
#117 = PRODUCT_DEFINITION_SHAPE ( 'NONE', 'NONE',  #82 ) ;
#118 = PRODUCT_DEFINITION_CONTEXT ( 'detailed design', #175, 'design' ) ;
#119 = VECTOR ( 'NONE', #45, 39.37007874015748100 ) ;
#120 = PRESENTATION_LAYER_ASSIGNMENT (  '', '', ( #106 ) ) ;
#121 = VECTOR ( 'NONE', #48, 39.37007874015748100 ) ;
#122 = MECHANICAL_DESIGN_GEOMETRIC_PRESENTATION_REPRESENTATION (  '', ( #106 ), #176 ) ;
#123 = LENGTH_MEASURE_WITH_UNIT ( LENGTH_MEASURE( 0.02539999999999999900 ), #55 );
#124 = LENGTH_MEASURE_WITH_UNIT ( LENGTH_MEASURE( 0.02539999999999999900 ), #66 );
#125 = STYLED_ITEM ( 'NONE', ( #7 ), #107 ) ;
#126 = PRESENTATION_LAYER_ASSIGNMENT (  '', '', ( #125 ) ) ;
#127 = MECHANICAL_DESIGN_GEOMETRIC_PRESENTATION_REPRESENTATION (  '', ( #125 ), #178 ) ;
#128 = LENGTH_MEASURE_WITH_UNIT ( LENGTH_MEASURE( 0.02539999999999999900 ), #8 );
#129 = AXIS2_PLACEMENT_3D ( 'NONE', #12, #13, #14 ) ;
#130 = PRODUCT_DEFINITION_FORMATION_WITH_SPECIFIED_SOURCE ( 'ANY', '', #112, .NOT_KNOWN. ) ;
#131 = FACE_OUTER_BOUND ( 'NONE', #196, .T. ) ;
#132 = CLOSED_SHELL ( 'NONE', ( #91, #92, #93, #94, #95, #96 ) ) ;
#133 = AXIS2_PLACEMENT_3D ( 'NONE', #170, #171, #172 ) ;
#134 = VECTOR ( 'NONE', #146, 39.37007874015748100 ) ;
#135 = VECTOR ( 'NONE', #150, 39.37007874015748100 ) ;
#136 = VECTOR ( 'NONE', #153, 39.37007874015748100 ) ;
#137 = VECTOR ( 'NONE', #42, 39.37007874015748100 ) ;
#138 = VECTOR ( 'NONE', #156, 39.37007874015748100 ) ;
#139 = ORIENTED_EDGE ( 'NONE', *, *, #90, .F. ) ;
#140 = ORIENTED_EDGE ( 'NONE', *, *, #85, .T. ) ;
#141 = EDGE_LOOP ( 'NONE', ( #140, #197, #139, #199 ) ) ;
#142 = EDGE_LOOP ( 'NONE', ( #200, #201, #202, #198 ) ) ;
#143 = EDGE_LOOP ( 'NONE', ( #204, #205, #206, #203 ) ) ;
#144 = LINE ( 'NONE', #145, #134 ) ;
#145 = CARTESIAN_POINT ( 'NONE',  ( 1.000000000000000000, 0.0000000000000000000, 1.224646799147353200E-016 ) ) ;
#146 = DIRECTION ( 'NONE',  ( 1.000000000000000000, -0.0000000000000000000, 1.224646799147353200E-016 ) ) ;
#147 = PLANE ( 'NONE',  #79 ) ;
#148 = LINE ( 'NONE', #149, #135 ) ;
#149 = CARTESIAN_POINT ( 'NONE',  ( 0.0000000000000000000, 0.0000000000000000000, 0.0000000000000000000 ) ) ;
#150 = DIRECTION ( 'NONE',  ( -0.0000000000000000000, -0.0000000000000000000, 1.000000000000000000 ) ) ;
#151 = LINE ( 'NONE', #152, #136 ) ;
#152 = CARTESIAN_POINT ( 'NONE',  ( 0.0000000000000000000, 0.5000000000000000000, -0.9999999999999995600 ) ) ;
#153 = DIRECTION ( 'NONE',  ( -1.000000000000000000, -0.0000000000000000000, 1.365923996832131900E-016 ) ) ;
#154 = LINE ( 'NONE', #155, #138 ) ;
#155 = CARTESIAN_POINT ( 'NONE',  ( 0.0000000000000000000, 0.0000000000000000000, -0.9999999999999995600 ) ) ;
#156 = DIRECTION ( 'NONE',  ( -1.000000000000000000, -0.0000000000000000000, 1.365923996832131900E-016 ) ) ;
#157 = LINE ( 'NONE', #158, #76 ) ;
#158 = CARTESIAN_POINT ( 'NONE',  ( 0.0000000000000000000, 0.5000000000000000000, -0.9999999999999995600 ) ) ;
#159 = DIRECTION ( 'NONE',  ( -0.0000000000000000000, -1.000000000000000000, -0.0000000000000000000 ) ) ;
#160 = LINE ( 'NONE', #161, #72 ) ;
#161 = CARTESIAN_POINT ( 'NONE',  ( 0.9999999999999998900, 0.5000000000000000000, -0.9999999999999996700 ) ) ;
#162 = DIRECTION ( 'NONE',  ( -1.365923996832131900E-016, -0.0000000000000000000, -1.000000000000000000 ) ) ;
#163 = LINE ( 'NONE', #164, #74 ) ;
#164 = CARTESIAN_POINT ( 'NONE',  ( 0.0000000000000000000, 0.5000000000000000000, 0.0000000000000000000 ) ) ;
#165 = DIRECTION ( 'NONE',  ( -0.0000000000000000000, -0.0000000000000000000, 1.000000000000000000 ) ) ;
#166 = CARTESIAN_POINT ( 'NONE',  ( 1.000000000000000000, 0.5000000000000000000, 1.224646799147353200E-016 ) ) ;
#167 = DIRECTION ( 'NONE',  ( 1.224646799147353200E-016, 0.0000000000000000000, -1.000000000000000000 ) ) ;
#168 = DIRECTION ( 'NONE',  ( -1.000000000000000000, 0.0000000000000000000, -1.224646799147353200E-016 ) ) ;
#169 = PLANE ( 'NONE',  #133 ) ;
#170 = CARTESIAN_POINT ( 'NONE',  ( 0.9999999999999998900, 0.5000000000000000000, -0.9999999999999996700 ) ) ;
#171 = DIRECTION ( 'NONE',  ( -1.000000000000000000, 0.0000000000000000000, 1.365923996832131900E-016 ) ) ;
#172 = DIRECTION ( 'NONE',  ( 1.365923996832131900E-016, 0.0000000000000000000, 1.000000000000000000 ) ) ;
#173 = PLANE ( 'NONE',  #75 ) ;
#174 = CARTESIAN_POINT ( 'NONE',  ( 0.0000000000000000000, 0.5000000000000000000, -0.9999999999999995600 ) ) ;
#175 = APPLICATION_CONTEXT ( 'automotive_design' ) ;
#176 =( GEOMETRIC_REPRESENTATION_CONTEXT ( 3 ) GLOBAL_UNCERTAINTY_ASSIGNED_CONTEXT ( ( #109 ) ) GLOBAL_UNIT_ASSIGNED_CONTEXT ( ( #56, #57, #58 ) ) REPRESENTATION_CONTEXT ( 'NONE', 'WORKASPACE' ) );
#177 =( GEOMETRIC_REPRESENTATION_CONTEXT ( 3 ) GLOBAL_UNCERTAINTY_ASSIGNED_CONTEXT ( ( #110 ) ) GLOBAL_UNIT_ASSIGNED_CONTEXT ( ( #67, #68, #69 ) ) REPRESENTATION_CONTEXT ( 'NONE', 'WORKASPACE' ) );
#178 =( GEOMETRIC_REPRESENTATION_CONTEXT ( 3 ) GLOBAL_UNCERTAINTY_ASSIGNED_CONTEXT ( ( #108 ) ) GLOBAL_UNIT_ASSIGNED_CONTEXT ( ( #9, #10, #11 ) ) REPRESENTATION_CONTEXT ( 'NONE', 'WORKASPACE' ) );
#179 = ORIENTED_EDGE ( 'NONE', *, *, #81, .T. ) ;
#180 = ORIENTED_EDGE ( 'NONE', *, *, #100, .F. ) ;
#181 = ORIENTED_EDGE ( 'NONE', *, *, #101, .F. ) ;
#182 = ORIENTED_EDGE ( 'NONE', *, *, #99, .T. ) ;
#183 = ORIENTED_EDGE ( 'NONE', *, *, #97, .T. ) ;
#184 = ORIENTED_EDGE ( 'NONE', *, *, #89, .F. ) ;
#185 = ORIENTED_EDGE ( 'NONE', *, *, #98, .F. ) ;
#186 = VERTEX_POINT ( 'NONE', #36 ) ;
#187 = VERTEX_POINT ( 'NONE', #59 ) ;
#188 = VERTEX_POINT ( 'NONE', #60 ) ;
#189 = VERTEX_POINT ( 'NONE', #61 ) ;
#190 = VERTEX_POINT ( 'NONE', #62 ) ;
#191 = VERTEX_POINT ( 'NONE', #63 ) ;
#192 = VERTEX_POINT ( 'NONE', #64 ) ;
#193 = VERTEX_POINT ( 'NONE', #65 ) ;
#194 = EDGE_LOOP ( 'NONE', ( #183, #185, #184, #207 ) ) ;
#195 = EDGE_LOOP ( 'NONE', ( #208, #210, #209, #211 ) ) ;
#196 = EDGE_LOOP ( 'NONE', ( #179, #181, #180, #182 ) ) ;
#197 = ORIENTED_EDGE ( 'NONE', *, *, #99, .F. ) ;
#198 = ORIENTED_EDGE ( 'NONE', *, *, #90, .T. ) ;
#199 = ORIENTED_EDGE ( 'NONE', *, *, #88, .T. ) ;
#200 = ORIENTED_EDGE ( 'NONE', *, *, #100, .T. ) ;
#201 = ORIENTED_EDGE ( 'NONE', *, *, #89, .T. ) ;
#202 = ORIENTED_EDGE ( 'NONE', *, *, #86, .T. ) ;
#203 = ORIENTED_EDGE ( 'NONE', *, *, #97, .F. ) ;
#204 = ORIENTED_EDGE ( 'NONE', *, *, #81, .F. ) ;
#205 = ORIENTED_EDGE ( 'NONE', *, *, #85, .F. ) ;
#206 = ORIENTED_EDGE ( 'NONE', *, *, #87, .F. ) ;
#207 = ORIENTED_EDGE ( 'NONE', *, *, #101, .T. ) ;
#208 = ORIENTED_EDGE ( 'NONE', *, *, #87, .T. ) ;
#209 = ORIENTED_EDGE ( 'NONE', *, *, #86, .F. ) ;
#210 = ORIENTED_EDGE ( 'NONE', *, *, #88, .F. ) ;
#211 = ORIENTED_EDGE ( 'NONE', *, *, #98, .T. ) ;
ENDSEC;
END-ISO-10303-21;
