ISO-10303-21;
HEADER;
FILE_DESCRIPTION (( 'STEP AP214' ),
    '1' );
FILE_NAME ('Q500P.step',
    '2012-04-20T21:03:32',
    ( '' ),
    ( '' ),
    'SwSTEP 2.0',
    'SolidWorks 2012',
    '' );
FILE_SCHEMA (( 'AUTOMOTIVE_DESIGN' ));
ENDSEC;

DATA;
#1 = ORIENTED_EDGE ( 'NONE', *, *, #103, .T. ) ;
#2 = ORIENTED_EDGE ( 'NONE', *, *, #99, .T. ) ;
#3 = ORIENTED_EDGE ( 'NONE', *, *, #104, .F. ) ;
#4 = ORIENTED_EDGE ( 'NONE', *, *, #97, .F. ) ;
#5 = ORIENTED_EDGE ( 'NONE', *, *, #98, .F. ) ;
#6 = ORIENTED_EDGE ( 'NONE', *, *, #100, .F. ) ;
#7 = LINE ( 'NONE', #8, #208 ) ;
#8 = CARTESIAN_POINT ( 'NONE',  ( 0.0000000000000000000, 0.5000000000000000000, 0.0000000000000000000 ) ) ;
#9 = DIRECTION ( 'NONE',  ( -0.0000000000000000000, -0.0000000000000000000, 1.000000000000000000 ) ) ;
#10 = PLANE ( 'NONE',  #163 ) ;
#11 = LINE ( 'NONE', #12, #209 ) ;
#12 = CARTESIAN_POINT ( 'NONE',  ( 2.000000000000000000, 0.0000000000000000000, -1.224646799147353200E-016 ) ) ;
#13 = DIRECTION ( 'NONE',  ( 1.000000000000000000, -0.0000000000000000000, -6.123233995736766000E-017 ) ) ;
#14 = LINE ( 'NONE', #15, #210 ) ;
#15 = CARTESIAN_POINT ( 'NONE',  ( 0.0000000000000000000, 0.0000000000000000000, 0.0000000000000000000 ) ) ;
#16 = DIRECTION ( 'NONE',  ( -0.0000000000000000000, -0.0000000000000000000, 1.000000000000000000 ) ) ;
#17 = LINE ( 'NONE', #18, #211 ) ;
#18 = CARTESIAN_POINT ( 'NONE',  ( 0.0000000000000000000, 0.5000000000000000000, -2.000000000000000000 ) ) ;
#19 = DIRECTION ( 'NONE',  ( -1.000000000000000000, -0.0000000000000000000, -0.0000000000000000000 ) ) ;
#20 = LINE ( 'NONE', #21, #162 ) ;
#21 = CARTESIAN_POINT ( 'NONE',  ( 0.0000000000000000000, 0.0000000000000000000, -2.000000000000000000 ) ) ;
#22 = DIRECTION ( 'NONE',  ( -1.000000000000000000, -0.0000000000000000000, -0.0000000000000000000 ) ) ;
#23 = LINE ( 'NONE', #24, #169 ) ;
#24 = CARTESIAN_POINT ( 'NONE',  ( 0.0000000000000000000, 0.5000000000000000000, -2.000000000000000000 ) ) ;
#25 = DIRECTION ( 'NONE',  ( -0.0000000000000000000, -1.000000000000000000, -0.0000000000000000000 ) ) ;
#26 = LINE ( 'NONE', #27, #170 ) ;
#27 = CARTESIAN_POINT ( 'NONE',  ( 1.999999999999999300, 0.5000000000000000000, -2.000000000000000000 ) ) ;
#28 = DIRECTION ( 'NONE',  ( -2.731847993664263200E-016, -0.0000000000000000000, -1.000000000000000000 ) ) ;
#29 = LINE ( 'NONE', #30, #171 ) ;
#30 = CARTESIAN_POINT ( 'NONE',  ( 1.999999999999999300, 0.0000000000000000000, -2.000000000000000000 ) ) ;
#31 = DIRECTION ( 'NONE',  ( -2.731847993664263200E-016, -0.0000000000000000000, -1.000000000000000000 ) ) ;
#32 = LINE ( 'NONE', #33, #172 ) ;
#33 = CARTESIAN_POINT ( 'NONE',  ( 1.999999999999999300, 0.5000000000000000000, -2.000000000000000000 ) ) ;
#34 = DIRECTION ( 'NONE',  ( -0.0000000000000000000, -1.000000000000000000, -0.0000000000000000000 ) ) ;
#35 = LINE ( 'NONE', #36, #173 ) ;
#36 = CARTESIAN_POINT ( 'NONE',  ( 0.0000000000000000000, 0.5000000000000000000, 0.0000000000000000000 ) ) ;
#37 = APPLICATION_PROTOCOL_DEFINITION ( 'draft international standard', 'automotive_design', 1998, #116 ) ;
#38 = FILL_AREA_STYLE_COLOUR ( '', #96 ) ;
#39 = FILL_AREA_STYLE ('',( #38 ) ) ;
#40 = SURFACE_STYLE_FILL_AREA ( #39 ) ;
#41 = SURFACE_SIDE_STYLE ('',( #40 ) ) ;
#42 = SURFACE_STYLE_USAGE ( .BOTH. , #41 ) ;
#43 = PRESENTATION_STYLE_ASSIGNMENT (( #42 ) ) ;
#44 =( LENGTH_UNIT ( ) NAMED_UNIT ( * ) SI_UNIT ( $, .METRE. ) );
#45 =( CONVERSION_BASED_UNIT ( 'INCH', #198 ) LENGTH_UNIT ( ) NAMED_UNIT ( #121 ) );
#46 =( NAMED_UNIT ( * ) PLANE_ANGLE_UNIT ( ) SI_UNIT ( $, .RADIAN. ) );
#47 =( NAMED_UNIT ( * ) SI_UNIT ( $, .STERADIAN. ) SOLID_ANGLE_UNIT ( ) );
#48 = CARTESIAN_POINT ( 'NONE',  ( 0.0000000000000000000, 0.0000000000000000000, 0.0000000000000000000 ) ) ;
#49 = DIRECTION ( 'NONE',  ( 0.0000000000000000000, 0.0000000000000000000, 1.000000000000000000 ) ) ;
#50 = DIRECTION ( 'NONE',  ( 1.000000000000000000, 0.0000000000000000000, 0.0000000000000000000 ) ) ;
#51 = SHAPE_DEFINITION_REPRESENTATION ( #125, #127 ) ;
#52 = PRODUCT_CONTEXT ( 'NONE', #116, 'mechanical' ) ;
#53 = APPLICATION_PROTOCOL_DEFINITION ( 'draft international standard', 'automotive_design', 1998, #117 ) ;
#54 = DIRECTION ( 'NONE',  ( -0.0000000000000000000, -1.000000000000000000, -0.0000000000000000000 ) ) ;
#55 = LINE ( 'NONE', #56, #167 ) ;
#56 = CARTESIAN_POINT ( 'NONE',  ( 2.000000000000000000, 0.5000000000000000000, -1.224646799147353200E-016 ) ) ;
#57 = DIRECTION ( 'NONE',  ( 1.000000000000000000, -0.0000000000000000000, -6.123233995736766000E-017 ) ) ;
#58 = CARTESIAN_POINT ( 'NONE',  ( 2.000000000000000000, 0.5000000000000000000, -1.224646799147353200E-016 ) ) ;
#59 = DIRECTION ( 'NONE',  ( -6.123233995736766000E-017, 0.0000000000000000000, -1.000000000000000000 ) ) ;
#60 = DIRECTION ( 'NONE',  ( -1.000000000000000000, 0.0000000000000000000, 6.123233995736766000E-017 ) ) ;
#61 = PLANE ( 'NONE',  #92 ) ;
#62 = CARTESIAN_POINT ( 'NONE',  ( 1.999999999999999300, 0.5000000000000000000, -2.000000000000000000 ) ) ;
#63 = DIRECTION ( 'NONE',  ( -1.000000000000000000, 0.0000000000000000000, 2.731847993664263200E-016 ) ) ;
#64 = DIRECTION ( 'NONE',  ( 2.731847993664263200E-016, 0.0000000000000000000, 1.000000000000000000 ) ) ;
#65 = PLANE ( 'NONE',  #168 ) ;
#66 = CARTESIAN_POINT ( 'NONE',  ( 0.0000000000000000000, 0.5000000000000000000, -2.000000000000000000 ) ) ;
#67 = DIRECTION ( 'NONE',  ( 0.0000000000000000000, 0.0000000000000000000, 1.000000000000000000 ) ) ;
#68 = DIRECTION ( 'NONE',  ( 1.000000000000000000, 0.0000000000000000000, -0.0000000000000000000 ) ) ;
#69 = PLANE ( 'NONE',  #201 ) ;
#70 = CARTESIAN_POINT ( 'NONE',  ( 0.0000000000000000000, 0.5000000000000000000, 0.0000000000000000000 ) ) ;
#71 = DIRECTION ( 'NONE',  ( 1.000000000000000000, -0.0000000000000000000, 0.0000000000000000000 ) ) ;
#72 = DIRECTION ( 'NONE',  ( 0.0000000000000000000, 0.0000000000000000000, -1.000000000000000000 ) ) ;
#73 = PLANE ( 'NONE',  #205 ) ;
#74 = CARTESIAN_POINT ( 'NONE',  ( 0.0000000000000000000, 0.5000000000000000000, 0.0000000000000000000 ) ) ;
#75 = DIRECTION ( 'NONE',  ( 0.0000000000000000000, -1.000000000000000000, -0.0000000000000000000 ) ) ;
#76 = DIRECTION ( 'NONE',  ( 0.0000000000000000000, 0.0000000000000000000, -1.000000000000000000 ) ) ;
#77 = PLANE ( 'NONE',  #166 ) ;
#78 = CARTESIAN_POINT ( 'NONE',  ( 0.0000000000000000000, 0.0000000000000000000, 0.0000000000000000000 ) ) ;
#79 = DIRECTION ( 'NONE',  ( 0.0000000000000000000, -1.000000000000000000, -0.0000000000000000000 ) ) ;
#80 = DIRECTION ( 'NONE',  ( 0.0000000000000000000, 0.0000000000000000000, -1.000000000000000000 ) ) ;
#81 = LINE ( 'NONE', #82, #191 ) ;
#82 = CARTESIAN_POINT ( 'NONE',  ( 2.000000000000000000, 0.5000000000000000000, -1.224646799147353200E-016 ) ) ;
#83 = DIRECTION ( 'NONE',  ( -0.0000000000000000000, -1.000000000000000000, -0.0000000000000000000 ) ) ;
#84 = CARTESIAN_POINT ( 'NONE',  ( 0.0000000000000000000, 0.5000000000000000000, -2.000000000000000000 ) ) ;
#85 = FILL_AREA_STYLE_COLOUR ( '', #94 ) ;
#86 = FILL_AREA_STYLE ('',( #85 ) ) ;
#87 = SURFACE_STYLE_FILL_AREA ( #86 ) ;
#88 = SURFACE_SIDE_STYLE ('',( #87 ) ) ;
#89 = SURFACE_STYLE_USAGE ( .BOTH. , #88 ) ;
#90 = FACE_OUTER_BOUND ( 'NONE', #138, .T. ) ;
#91 = FACE_OUTER_BOUND ( 'NONE', #135, .T. ) ;
#92 = AXIS2_PLACEMENT_3D ( 'NONE', #62, #63, #64 ) ;
#93 = PRODUCT_DEFINITION ( 'UNKNOWN', '', #200, #123 ) ;
#94 = COLOUR_RGB ( '',0.5686274509803921400, 0.5686274509803921400, 0.5882352941176470800 ) ;
#95 = EDGE_CURVE ( 'NONE', #140, #144, #7, .T. ) ;
#96 = COLOUR_RGB ( '',0.5686274509803921400, 0.5686274509803921400, 0.5882352941176470800 ) ;
#97 = EDGE_CURVE ( 'NONE', #134, #133, #11, .T. ) ;
#98 = EDGE_CURVE ( 'NONE', #139, #134, #14, .T. ) ;
#99 = EDGE_CURVE ( 'NONE', #143, #140, #17, .T. ) ;
#100 = EDGE_CURVE ( 'NONE', #142, #139, #20, .T. ) ;
#101 = EDGE_CURVE ( 'NONE', #140, #139, #23, .T. ) ;
#102 = PRODUCT_RELATED_PRODUCT_CATEGORY ( 'part', '', ( #119 ) ) ;
#103 = EDGE_CURVE ( 'NONE', #141, #143, #26, .T. ) ;
#104 = EDGE_CURVE ( 'NONE', #133, #142, #29, .T. ) ;
#105 = EDGE_CURVE ( 'NONE', #143, #142, #32, .T. ) ;
#106 = EDGE_CURVE ( 'NONE', #144, #134, #35, .T. ) ;
#107 = EDGE_CURVE ( 'NONE', #144, #141, #55, .T. ) ;
#108 = ADVANCED_FACE ( 'NONE', ( #207 ), #10, .F. ) ;
#109 = ADVANCED_FACE ( 'NONE', ( #165 ), #61, .F. ) ;
#110 = ADVANCED_FACE ( 'NONE', ( #91 ), #65, .F. ) ;
#111 = ADVANCED_FACE ( 'NONE', ( #164 ), #69, .F. ) ;
#112 = ADVANCED_FACE ( 'NONE', ( #115 ), #73, .F. ) ;
#113 = ADVANCED_FACE ( 'NONE', ( #90 ), #77, .T. ) ;
#114 = EDGE_CURVE ( 'NONE', #141, #133, #81, .T. ) ;
#115 = FACE_OUTER_BOUND ( 'NONE', #137, .T. ) ;
#116 = APPLICATION_CONTEXT ( 'automotive_design' ) ;
#117 = APPLICATION_CONTEXT ( 'automotive_design' ) ;
#118 = STYLED_ITEM ( 'NONE', ( #174 ), #124 ) ;
#119 = PRODUCT ( 'Q500P', 'Q500P', '', ( #52 ) ) ;
#120 = DIMENSIONAL_EXPONENTS ( 1.000000000000000000, 0.0000000000000000000, 0.0000000000000000000, 0.0000000000000000000, 0.0000000000000000000, 0.0000000000000000000, 0.0000000000000000000 ) ;
#121 = DIMENSIONAL_EXPONENTS ( 1.000000000000000000, 0.0000000000000000000, 0.0000000000000000000, 0.0000000000000000000, 0.0000000000000000000, 0.0000000000000000000, 0.0000000000000000000 ) ;
#122 = DIMENSIONAL_EXPONENTS ( 1.000000000000000000, 0.0000000000000000000, 0.0000000000000000000, 0.0000000000000000000, 0.0000000000000000000, 0.0000000000000000000, 0.0000000000000000000 ) ;
#123 = PRODUCT_DEFINITION_CONTEXT ( 'detailed design', #117, 'design' ) ;
#124 = MANIFOLD_SOLID_BREP ( 'Boss-Extrude1', #206 ) ;
#125 = PRODUCT_DEFINITION_SHAPE ( 'NONE', 'NONE',  #93 ) ;
#126 = UNCERTAINTY_MEASURE_WITH_UNIT (LENGTH_MEASURE( 1.000000000000000100E-005 ), #187, 'distance_accuracy_value', 'NONE');
#127 = ADVANCED_BREP_SHAPE_REPRESENTATION ( 'Q500P', ( #124, #199 ), #203 ) ;
#128 = UNCERTAINTY_MEASURE_WITH_UNIT (LENGTH_MEASURE( 1.000000000000000100E-005 ), #45, 'distance_accuracy_value', 'NONE');
#129 = UNCERTAINTY_MEASURE_WITH_UNIT (LENGTH_MEASURE( 1.000000000000000100E-005 ), #176, 'distance_accuracy_value', 'NONE');
#130 = ORIENTED_EDGE ( 'NONE', *, *, #97, .T. ) ;
#131 = EDGE_LOOP ( 'NONE', ( #130, #146, #145, #147 ) ) ;
#132 = EDGE_LOOP ( 'NONE', ( #148, #150, #149, #151 ) ) ;
#133 = VERTEX_POINT ( 'NONE', #179 ) ;
#134 = VERTEX_POINT ( 'NONE', #180 ) ;
#135 = EDGE_LOOP ( 'NONE', ( #152, #154, #153, #155 ) ) ;
#136 = EDGE_LOOP ( 'NONE', ( #157, #158, #156, #160 ) ) ;
#137 = EDGE_LOOP ( 'NONE', ( #161, #1, #2, #159 ) ) ;
#138 = EDGE_LOOP ( 'NONE', ( #4, #5, #6, #3 ) ) ;
#139 = VERTEX_POINT ( 'NONE', #181 ) ;
#140 = VERTEX_POINT ( 'NONE', #84 ) ;
#141 = VERTEX_POINT ( 'NONE', #182 ) ;
#142 = VERTEX_POINT ( 'NONE', #183 ) ;
#143 = VERTEX_POINT ( 'NONE', #184 ) ;
#144 = VERTEX_POINT ( 'NONE', #185 ) ;
#145 = ORIENTED_EDGE ( 'NONE', *, *, #107, .F. ) ;
#146 = ORIENTED_EDGE ( 'NONE', *, *, #114, .F. ) ;
#147 = ORIENTED_EDGE ( 'NONE', *, *, #106, .T. ) ;
#148 = ORIENTED_EDGE ( 'NONE', *, *, #104, .T. ) ;
#149 = ORIENTED_EDGE ( 'NONE', *, *, #103, .F. ) ;
#150 = ORIENTED_EDGE ( 'NONE', *, *, #105, .F. ) ;
#151 = ORIENTED_EDGE ( 'NONE', *, *, #114, .T. ) ;
#152 = ORIENTED_EDGE ( 'NONE', *, *, #100, .T. ) ;
#153 = ORIENTED_EDGE ( 'NONE', *, *, #99, .F. ) ;
#154 = ORIENTED_EDGE ( 'NONE', *, *, #101, .F. ) ;
#155 = ORIENTED_EDGE ( 'NONE', *, *, #105, .T. ) ;
#156 = ORIENTED_EDGE ( 'NONE', *, *, #95, .F. ) ;
#157 = ORIENTED_EDGE ( 'NONE', *, *, #98, .T. ) ;
#158 = ORIENTED_EDGE ( 'NONE', *, *, #106, .F. ) ;
#159 = ORIENTED_EDGE ( 'NONE', *, *, #95, .T. ) ;
#160 = ORIENTED_EDGE ( 'NONE', *, *, #101, .T. ) ;
#161 = ORIENTED_EDGE ( 'NONE', *, *, #107, .T. ) ;
#162 = VECTOR ( 'NONE', #22, 39.37007874015748100 ) ;
#163 = AXIS2_PLACEMENT_3D ( 'NONE', #58, #59, #60 ) ;
#164 = FACE_OUTER_BOUND ( 'NONE', #136, .T. ) ;
#165 = FACE_OUTER_BOUND ( 'NONE', #132, .T. ) ;
#166 = AXIS2_PLACEMENT_3D ( 'NONE', #78, #79, #80 ) ;
#167 = VECTOR ( 'NONE', #57, 39.37007874015748100 ) ;
#168 = AXIS2_PLACEMENT_3D ( 'NONE', #66, #67, #68 ) ;
#169 = VECTOR ( 'NONE', #25, 39.37007874015748100 ) ;
#170 = VECTOR ( 'NONE', #28, 39.37007874015748100 ) ;
#171 = VECTOR ( 'NONE', #31, 39.37007874015748100 ) ;
#172 = VECTOR ( 'NONE', #34, 39.37007874015748100 ) ;
#173 = VECTOR ( 'NONE', #54, 39.37007874015748100 ) ;
#174 = PRESENTATION_STYLE_ASSIGNMENT (( #89 ) ) ;
#175 =( LENGTH_UNIT ( ) NAMED_UNIT ( * ) SI_UNIT ( $, .METRE. ) );
#176 =( CONVERSION_BASED_UNIT ( 'INCH', #194 ) LENGTH_UNIT ( ) NAMED_UNIT ( #122 ) );
#177 =( NAMED_UNIT ( * ) PLANE_ANGLE_UNIT ( ) SI_UNIT ( $, .RADIAN. ) );
#178 =( NAMED_UNIT ( * ) SI_UNIT ( $, .STERADIAN. ) SOLID_ANGLE_UNIT ( ) );
#179 = CARTESIAN_POINT ( 'NONE',  ( 2.000000000000000000, 0.0000000000000000000, -1.224646799147353200E-016 ) ) ;
#180 = CARTESIAN_POINT ( 'NONE',  ( 0.0000000000000000000, 0.0000000000000000000, 0.0000000000000000000 ) ) ;
#181 = CARTESIAN_POINT ( 'NONE',  ( 0.0000000000000000000, 0.0000000000000000000, -2.000000000000000000 ) ) ;
#182 = CARTESIAN_POINT ( 'NONE',  ( 2.000000000000000000, 0.5000000000000000000, -1.224646799147353200E-016 ) ) ;
#183 = CARTESIAN_POINT ( 'NONE',  ( 1.999999999999999300, 0.0000000000000000000, -2.000000000000000000 ) ) ;
#184 = CARTESIAN_POINT ( 'NONE',  ( 1.999999999999999300, 0.5000000000000000000, -2.000000000000000000 ) ) ;
#185 = CARTESIAN_POINT ( 'NONE',  ( 0.0000000000000000000, 0.5000000000000000000, 0.0000000000000000000 ) ) ;
#186 =( LENGTH_UNIT ( ) NAMED_UNIT ( * ) SI_UNIT ( $, .METRE. ) );
#187 =( CONVERSION_BASED_UNIT ( 'INCH', #190 ) LENGTH_UNIT ( ) NAMED_UNIT ( #120 ) );
#188 =( NAMED_UNIT ( * ) PLANE_ANGLE_UNIT ( ) SI_UNIT ( $, .RADIAN. ) );
#189 =( NAMED_UNIT ( * ) SI_UNIT ( $, .STERADIAN. ) SOLID_ANGLE_UNIT ( ) );
#190 = LENGTH_MEASURE_WITH_UNIT ( LENGTH_MEASURE( 0.02539999999999999900 ), #186 );
#191 = VECTOR ( 'NONE', #83, 39.37007874015748100 ) ;
#192 = PRESENTATION_LAYER_ASSIGNMENT (  '', '', ( #118 ) ) ;
#193 = MECHANICAL_DESIGN_GEOMETRIC_PRESENTATION_REPRESENTATION (  '', ( #118 ), #202 ) ;
#194 = LENGTH_MEASURE_WITH_UNIT ( LENGTH_MEASURE( 0.02539999999999999900 ), #175 );
#195 = STYLED_ITEM ( 'NONE', ( #43 ), #127 ) ;
#196 = PRESENTATION_LAYER_ASSIGNMENT (  '', '', ( #195 ) ) ;
#197 = MECHANICAL_DESIGN_GEOMETRIC_PRESENTATION_REPRESENTATION (  '', ( #195 ), #204 ) ;
#198 = LENGTH_MEASURE_WITH_UNIT ( LENGTH_MEASURE( 0.02539999999999999900 ), #44 );
#199 = AXIS2_PLACEMENT_3D ( 'NONE', #48, #49, #50 ) ;
#200 = PRODUCT_DEFINITION_FORMATION_WITH_SPECIFIED_SOURCE ( 'ANY', '', #119, .NOT_KNOWN. ) ;
#201 = AXIS2_PLACEMENT_3D ( 'NONE', #70, #71, #72 ) ;
#202 =( GEOMETRIC_REPRESENTATION_CONTEXT ( 3 ) GLOBAL_UNCERTAINTY_ASSIGNED_CONTEXT ( ( #129 ) ) GLOBAL_UNIT_ASSIGNED_CONTEXT ( ( #176, #177, #178 ) ) REPRESENTATION_CONTEXT ( 'NONE', 'WORKASPACE' ) );
#203 =( GEOMETRIC_REPRESENTATION_CONTEXT ( 3 ) GLOBAL_UNCERTAINTY_ASSIGNED_CONTEXT ( ( #126 ) ) GLOBAL_UNIT_ASSIGNED_CONTEXT ( ( #187, #188, #189 ) ) REPRESENTATION_CONTEXT ( 'NONE', 'WORKASPACE' ) );
#204 =( GEOMETRIC_REPRESENTATION_CONTEXT ( 3 ) GLOBAL_UNCERTAINTY_ASSIGNED_CONTEXT ( ( #128 ) ) GLOBAL_UNIT_ASSIGNED_CONTEXT ( ( #45, #46, #47 ) ) REPRESENTATION_CONTEXT ( 'NONE', 'WORKASPACE' ) );
#205 = AXIS2_PLACEMENT_3D ( 'NONE', #74, #75, #76 ) ;
#206 = CLOSED_SHELL ( 'NONE', ( #108, #109, #110, #111, #112, #113 ) ) ;
#207 = FACE_OUTER_BOUND ( 'NONE', #131, .T. ) ;
#208 = VECTOR ( 'NONE', #9, 39.37007874015748100 ) ;
#209 = VECTOR ( 'NONE', #13, 39.37007874015748100 ) ;
#210 = VECTOR ( 'NONE', #16, 39.37007874015748100 ) ;
#211 = VECTOR ( 'NONE', #19, 39.37007874015748100 ) ;
ENDSEC;
END-ISO-10303-21;
