ISO-10303-21;
HEADER;
FILE_DESCRIPTION (( 'STEP AP214' ),
    '1' );
FILE_NAME ('Q500PN50.step',
    '2012-04-20T21:03:37',
    ( '' ),
    ( '' ),
    'SwSTEP 2.0',
    'SolidWorks 2012',
    '' );
FILE_SCHEMA (( 'AUTOMOTIVE_DESIGN' ));
ENDSEC;

DATA;
#1 = EDGE_LOOP ( 'NONE', ( #18, #20, #21, #120 ) ) ;
#2 = EDGE_LOOP ( 'NONE', ( #121, #123, #122, #124 ) ) ;
#3 = EDGE_LOOP ( 'NONE', ( #126, #22, #125, #24 ) ) ;
#4 = EDGE_LOOP ( 'NONE', ( #25, #26, #27, #23 ) ) ;
#5 = EDGE_LOOP ( 'NONE', ( #29, #30, #31, #28 ) ) ;
#6 = VERTEX_POINT ( 'NONE', #127 ) ;
#7 = VERTEX_POINT ( 'NONE', #128 ) ;
#8 = VERTEX_POINT ( 'NONE', #129 ) ;
#9 = VERTEX_POINT ( 'NONE', #130 ) ;
#10 = VERTEX_POINT ( 'NONE', #131 ) ;
#11 = VERTEX_POINT ( 'NONE', #132 ) ;
#12 = VERTEX_POINT ( 'NONE', #133 ) ;
#13 = VERTEX_POINT ( 'NONE', #134 ) ;
#14 = ORIENTED_EDGE ( 'NONE', *, *, #72, .T. ) ;
#15 = ORIENTED_EDGE ( 'NONE', *, *, #52, .F. ) ;
#16 = ORIENTED_EDGE ( 'NONE', *, *, #62, .F. ) ;
#17 = ORIENTED_EDGE ( 'NONE', *, *, #71, .T. ) ;
#18 = ORIENTED_EDGE ( 'NONE', *, *, #69, .T. ) ;
#19 = EDGE_LOOP ( 'NONE', ( #14, #16, #15, #17 ) ) ;
#20 = ORIENTED_EDGE ( 'NONE', *, *, #70, .F. ) ;
#21 = ORIENTED_EDGE ( 'NONE', *, *, #59, .F. ) ;
#22 = ORIENTED_EDGE ( 'NONE', *, *, #71, .F. ) ;
#23 = ORIENTED_EDGE ( 'NONE', *, *, #61, .T. ) ;
#24 = ORIENTED_EDGE ( 'NONE', *, *, #58, .T. ) ;
#25 = ORIENTED_EDGE ( 'NONE', *, *, #52, .T. ) ;
#26 = ORIENTED_EDGE ( 'NONE', *, *, #59, .T. ) ;
#27 = ORIENTED_EDGE ( 'NONE', *, *, #56, .T. ) ;
#28 = ORIENTED_EDGE ( 'NONE', *, *, #69, .F. ) ;
#29 = ORIENTED_EDGE ( 'NONE', *, *, #72, .F. ) ;
#30 = ORIENTED_EDGE ( 'NONE', *, *, #55, .F. ) ;
#31 = ORIENTED_EDGE ( 'NONE', *, *, #57, .F. ) ;
#32 = APPLICATION_PROTOCOL_DEFINITION ( 'draft international standard', 'automotive_design', 1998, #49 ) ;
#33 = FILL_AREA_STYLE_COLOUR ( '', #53 ) ;
#34 = FILL_AREA_STYLE ('',( #33 ) ) ;
#35 = SURFACE_STYLE_FILL_AREA ( #34 ) ;
#36 = SURFACE_SIDE_STYLE ('',( #35 ) ) ;
#37 = SURFACE_STYLE_USAGE ( .BOTH. , #36 ) ;
#38 = PRESENTATION_STYLE_ASSIGNMENT (( #37 ) ) ;
#39 =( LENGTH_UNIT ( ) NAMED_UNIT ( * ) SI_UNIT ( $, .METRE. ) );
#40 =( CONVERSION_BASED_UNIT ( 'INCH', #174 ) LENGTH_UNIT ( ) NAMED_UNIT ( #109 ) );
#41 =( NAMED_UNIT ( * ) PLANE_ANGLE_UNIT ( ) SI_UNIT ( $, .RADIAN. ) );
#42 =( NAMED_UNIT ( * ) SI_UNIT ( $, .STERADIAN. ) SOLID_ANGLE_UNIT ( ) );
#43 = CARTESIAN_POINT ( 'NONE',  ( 0.0000000000000000000, 0.0000000000000000000, 0.0000000000000000000 ) ) ;
#44 = DIRECTION ( 'NONE',  ( 0.0000000000000000000, 0.0000000000000000000, 1.000000000000000000 ) ) ;
#45 = DIRECTION ( 'NONE',  ( 1.000000000000000000, 0.0000000000000000000, 0.0000000000000000000 ) ) ;
#46 = SHAPE_DEFINITION_REPRESENTATION ( #114, #119 ) ;
#47 = PRODUCT_CONTEXT ( 'NONE', #49, 'mechanical' ) ;
#48 = APPLICATION_PROTOCOL_DEFINITION ( 'draft international standard', 'automotive_design', 1998, #50 ) ;
#49 = APPLICATION_CONTEXT ( 'automotive_design' ) ;
#50 = APPLICATION_CONTEXT ( 'automotive_design' ) ;
#51 = PRODUCT_DEFINITION ( 'UNKNOWN', '', #176, #113 ) ;
#52 = EDGE_CURVE ( 'NONE', #6, #7, #135, .T. ) ;
#53 = COLOUR_RGB ( '',0.5686274509803921400, 0.5686274509803921400, 0.5882352941176470800 ) ;
#54 = COLOUR_RGB ( '',0.5686274509803921400, 0.5686274509803921400, 0.5882352941176470800 ) ;
#55 = EDGE_CURVE ( 'NONE', #13, #9, #139, .T. ) ;
#56 = EDGE_CURVE ( 'NONE', #10, #12, #142, .T. ) ;
#57 = EDGE_CURVE ( 'NONE', #8, #13, #145, .T. ) ;
#58 = EDGE_CURVE ( 'NONE', #12, #13, #148, .T. ) ;
#59 = EDGE_CURVE ( 'NONE', #7, #10, #151, .T. ) ;
#60 = PRODUCT_RELATED_PRODUCT_CATEGORY ( 'part', '', ( #106 ) ) ;
#61 = EDGE_CURVE ( 'NONE', #12, #6, #154, .T. ) ;
#62 = EDGE_CURVE ( 'NONE', #7, #11, #178, .T. ) ;
#63 = ADVANCED_FACE ( 'NONE', ( #158 ), #138, .F. ) ;
#64 = ADVANCED_FACE ( 'NONE', ( #85 ), #184, .F. ) ;
#65 = ADVANCED_FACE ( 'NONE', ( #86 ), #188, .F. ) ;
#66 = ADVANCED_FACE ( 'NONE', ( #73 ), #192, .F. ) ;
#67 = ADVANCED_FACE ( 'NONE', ( #112 ), #196, .F. ) ;
#68 = ADVANCED_FACE ( 'NONE', ( #75 ), #200, .T. ) ;
#69 = EDGE_CURVE ( 'NONE', #11, #8, #204, .T. ) ;
#70 = EDGE_CURVE ( 'NONE', #10, #8, #207, .T. ) ;
#71 = EDGE_CURVE ( 'NONE', #6, #9, #210, .T. ) ;
#72 = EDGE_CURVE ( 'NONE', #9, #11, #89, .T. ) ;
#73 = FACE_OUTER_BOUND ( 'NONE', #3, .T. ) ;
#74 = VECTOR ( 'NONE', #147, 39.37007874015748100 ) ;
#75 = FACE_OUTER_BOUND ( 'NONE', #5, .T. ) ;
#76 = STYLED_ITEM ( 'NONE', ( #97 ), #115 ) ;
#77 = VECTOR ( 'NONE', #144, 39.37007874015748100 ) ;
#78 = VECTOR ( 'NONE', #153, 39.37007874015748100 ) ;
#79 = AXIS2_PLACEMENT_3D ( 'NONE', #197, #198, #199 ) ;
#80 = VECTOR ( 'NONE', #177, 39.37007874015748100 ) ;
#81 = VECTOR ( 'NONE', #150, 39.37007874015748100 ) ;
#82 = VECTOR ( 'NONE', #180, 39.37007874015748100 ) ;
#83 = AXIS2_PLACEMENT_3D ( 'NONE', #181, #182, #183 ) ;
#84 = AXIS2_PLACEMENT_3D ( 'NONE', #185, #186, #187 ) ;
#85 = FACE_OUTER_BOUND ( 'NONE', #1, .T. ) ;
#86 = FACE_OUTER_BOUND ( 'NONE', #2, .T. ) ;
#87 = AXIS2_PLACEMENT_3D ( 'NONE', #189, #190, #191 ) ;
#88 = DIRECTION ( 'NONE',  ( -0.0000000000000000000, -1.000000000000000000, -0.0000000000000000000 ) ) ;
#89 = LINE ( 'NONE', #90, #168 ) ;
#90 = CARTESIAN_POINT ( 'NONE',  ( 2.000000000000000000, 0.0000000000000000000, -1.224646799147353200E-016 ) ) ;
#91 = DIRECTION ( 'NONE',  ( 1.000000000000000000, -0.0000000000000000000, -6.123233995736766000E-017 ) ) ;
#92 = FILL_AREA_STYLE_COLOUR ( '', #54 ) ;
#93 = FILL_AREA_STYLE ('',( #92 ) ) ;
#94 = SURFACE_STYLE_FILL_AREA ( #93 ) ;
#95 = SURFACE_SIDE_STYLE ('',( #94 ) ) ;
#96 = SURFACE_STYLE_USAGE ( .BOTH. , #95 ) ;
#97 = PRESENTATION_STYLE_ASSIGNMENT (( #96 ) ) ;
#98 =( LENGTH_UNIT ( ) NAMED_UNIT ( * ) SI_UNIT ( $, .METRE. ) );
#99 =( CONVERSION_BASED_UNIT ( 'INCH', #170 ) LENGTH_UNIT ( ) NAMED_UNIT ( #108 ) );
#100 =( NAMED_UNIT ( * ) PLANE_ANGLE_UNIT ( ) SI_UNIT ( $, .RADIAN. ) );
#101 =( NAMED_UNIT ( * ) SI_UNIT ( $, .STERADIAN. ) SOLID_ANGLE_UNIT ( ) );
#102 =( LENGTH_UNIT ( ) NAMED_UNIT ( * ) SI_UNIT ( $, .METRE. ) );
#103 =( CONVERSION_BASED_UNIT ( 'INCH', #165 ) LENGTH_UNIT ( ) NAMED_UNIT ( #107 ) );
#104 =( NAMED_UNIT ( * ) PLANE_ANGLE_UNIT ( ) SI_UNIT ( $, .RADIAN. ) );
#105 =( NAMED_UNIT ( * ) SI_UNIT ( $, .STERADIAN. ) SOLID_ANGLE_UNIT ( ) );
#106 = PRODUCT ( 'Q500PN50', 'Q500PN50', '', ( #47 ) ) ;
#107 = DIMENSIONAL_EXPONENTS ( 1.000000000000000000, 0.0000000000000000000, 0.0000000000000000000, 0.0000000000000000000, 0.0000000000000000000, 0.0000000000000000000, 0.0000000000000000000 ) ;
#108 = DIMENSIONAL_EXPONENTS ( 1.000000000000000000, 0.0000000000000000000, 0.0000000000000000000, 0.0000000000000000000, 0.0000000000000000000, 0.0000000000000000000, 0.0000000000000000000 ) ;
#109 = DIMENSIONAL_EXPONENTS ( 1.000000000000000000, 0.0000000000000000000, 0.0000000000000000000, 0.0000000000000000000, 0.0000000000000000000, 0.0000000000000000000, 0.0000000000000000000 ) ;
#110 = AXIS2_PLACEMENT_3D ( 'NONE', #193, #194, #195 ) ;
#111 = AXIS2_PLACEMENT_3D ( 'NONE', #201, #202, #203 ) ;
#112 = FACE_OUTER_BOUND ( 'NONE', #4, .T. ) ;
#113 = PRODUCT_DEFINITION_CONTEXT ( 'detailed design', #50, 'design' ) ;
#114 = PRODUCT_DEFINITION_SHAPE ( 'NONE', 'NONE',  #51 ) ;
#115 = MANIFOLD_SOLID_BREP ( 'Boss-Extrude1', #157 ) ;
#116 = UNCERTAINTY_MEASURE_WITH_UNIT (LENGTH_MEASURE( 1.000000000000000100E-005 ), #103, 'distance_accuracy_value', 'NONE');
#117 = UNCERTAINTY_MEASURE_WITH_UNIT (LENGTH_MEASURE( 1.000000000000000100E-005 ), #40, 'distance_accuracy_value', 'NONE');
#118 = UNCERTAINTY_MEASURE_WITH_UNIT (LENGTH_MEASURE( 1.000000000000000100E-005 ), #99, 'distance_accuracy_value', 'NONE');
#119 = ADVANCED_BREP_SHAPE_REPRESENTATION ( 'Q500PN50', ( #115, #175 ), #162 ) ;
#120 = ORIENTED_EDGE ( 'NONE', *, *, #62, .T. ) ;
#121 = ORIENTED_EDGE ( 'NONE', *, *, #57, .T. ) ;
#122 = ORIENTED_EDGE ( 'NONE', *, *, #56, .F. ) ;
#123 = ORIENTED_EDGE ( 'NONE', *, *, #58, .F. ) ;
#124 = ORIENTED_EDGE ( 'NONE', *, *, #70, .T. ) ;
#125 = ORIENTED_EDGE ( 'NONE', *, *, #61, .F. ) ;
#126 = ORIENTED_EDGE ( 'NONE', *, *, #55, .T. ) ;
#127 = CARTESIAN_POINT ( 'NONE',  ( 0.0000000000000000000, 0.5000000000000000000, 0.0000000000000000000 ) ) ;
#128 = CARTESIAN_POINT ( 'NONE',  ( 2.000000000000000000, 0.5000000000000000000, -1.224646799147353200E-016 ) ) ;
#129 = CARTESIAN_POINT ( 'NONE',  ( 1.999999999999999300, 0.0000000000000000000, -2.000000000000000000 ) ) ;
#130 = CARTESIAN_POINT ( 'NONE',  ( 0.0000000000000000000, 0.0000000000000000000, 0.0000000000000000000 ) ) ;
#131 = CARTESIAN_POINT ( 'NONE',  ( 1.999999999999999300, 0.5000000000000000000, -2.000000000000000000 ) ) ;
#132 = CARTESIAN_POINT ( 'NONE',  ( 2.000000000000000000, 0.0000000000000000000, -1.224646799147353200E-016 ) ) ;
#133 = CARTESIAN_POINT ( 'NONE',  ( 0.0000000000000000000, 0.5000000000000000000, -2.000000000000000000 ) ) ;
#134 = CARTESIAN_POINT ( 'NONE',  ( 0.0000000000000000000, 0.0000000000000000000, -2.000000000000000000 ) ) ;
#135 = LINE ( 'NONE', #136, #159 ) ;
#136 = CARTESIAN_POINT ( 'NONE',  ( 2.000000000000000000, 0.5000000000000000000, -1.224646799147353200E-016 ) ) ;
#137 = DIRECTION ( 'NONE',  ( 1.000000000000000000, -0.0000000000000000000, -6.123233995736766000E-017 ) ) ;
#138 = PLANE ( 'NONE',  #83 ) ;
#139 = LINE ( 'NONE', #140, #160 ) ;
#140 = CARTESIAN_POINT ( 'NONE',  ( 0.0000000000000000000, 0.0000000000000000000, 0.0000000000000000000 ) ) ;
#141 = DIRECTION ( 'NONE',  ( -0.0000000000000000000, -0.0000000000000000000, 1.000000000000000000 ) ) ;
#142 = LINE ( 'NONE', #143, #77 ) ;
#143 = CARTESIAN_POINT ( 'NONE',  ( 0.0000000000000000000, 0.5000000000000000000, -2.000000000000000000 ) ) ;
#144 = DIRECTION ( 'NONE',  ( -1.000000000000000000, -0.0000000000000000000, -0.0000000000000000000 ) ) ;
#145 = LINE ( 'NONE', #146, #74 ) ;
#146 = CARTESIAN_POINT ( 'NONE',  ( 0.0000000000000000000, 0.0000000000000000000, -2.000000000000000000 ) ) ;
#147 = DIRECTION ( 'NONE',  ( -1.000000000000000000, -0.0000000000000000000, -0.0000000000000000000 ) ) ;
#148 = LINE ( 'NONE', #149, #81 ) ;
#149 = CARTESIAN_POINT ( 'NONE',  ( 0.0000000000000000000, 0.5000000000000000000, -2.000000000000000000 ) ) ;
#150 = DIRECTION ( 'NONE',  ( -0.0000000000000000000, -1.000000000000000000, -0.0000000000000000000 ) ) ;
#151 = LINE ( 'NONE', #152, #78 ) ;
#152 = CARTESIAN_POINT ( 'NONE',  ( 1.999999999999999300, 0.5000000000000000000, -2.000000000000000000 ) ) ;
#153 = DIRECTION ( 'NONE',  ( -2.731847993664263200E-016, -0.0000000000000000000, -1.000000000000000000 ) ) ;
#154 = LINE ( 'NONE', #155, #80 ) ;
#155 = CARTESIAN_POINT ( 'NONE',  ( 0.0000000000000000000, 0.5000000000000000000, 0.0000000000000000000 ) ) ;
#156 = VECTOR ( 'NONE', #206, 39.37007874015748100 ) ;
#157 = CLOSED_SHELL ( 'NONE', ( #63, #64, #65, #66, #67, #68 ) ) ;
#158 = FACE_OUTER_BOUND ( 'NONE', #19, .T. ) ;
#159 = VECTOR ( 'NONE', #137, 39.37007874015748100 ) ;
#160 = VECTOR ( 'NONE', #141, 39.37007874015748100 ) ;
#161 =( GEOMETRIC_REPRESENTATION_CONTEXT ( 3 ) GLOBAL_UNCERTAINTY_ASSIGNED_CONTEXT ( ( #118 ) ) GLOBAL_UNIT_ASSIGNED_CONTEXT ( ( #99, #100, #101 ) ) REPRESENTATION_CONTEXT ( 'NONE', 'WORKASPACE' ) );
#162 =( GEOMETRIC_REPRESENTATION_CONTEXT ( 3 ) GLOBAL_UNCERTAINTY_ASSIGNED_CONTEXT ( ( #116 ) ) GLOBAL_UNIT_ASSIGNED_CONTEXT ( ( #103, #104, #105 ) ) REPRESENTATION_CONTEXT ( 'NONE', 'WORKASPACE' ) );
#163 =( GEOMETRIC_REPRESENTATION_CONTEXT ( 3 ) GLOBAL_UNCERTAINTY_ASSIGNED_CONTEXT ( ( #117 ) ) GLOBAL_UNIT_ASSIGNED_CONTEXT ( ( #40, #41, #42 ) ) REPRESENTATION_CONTEXT ( 'NONE', 'WORKASPACE' ) );
#164 = VECTOR ( 'NONE', #209, 39.37007874015748100 ) ;
#165 = LENGTH_MEASURE_WITH_UNIT ( LENGTH_MEASURE( 0.02539999999999999900 ), #102 );
#166 = VECTOR ( 'NONE', #88, 39.37007874015748100 ) ;
#167 = PRESENTATION_LAYER_ASSIGNMENT (  '', '', ( #76 ) ) ;
#168 = VECTOR ( 'NONE', #91, 39.37007874015748100 ) ;
#169 = MECHANICAL_DESIGN_GEOMETRIC_PRESENTATION_REPRESENTATION (  '', ( #76 ), #161 ) ;
#170 = LENGTH_MEASURE_WITH_UNIT ( LENGTH_MEASURE( 0.02539999999999999900 ), #98 );
#171 = STYLED_ITEM ( 'NONE', ( #38 ), #119 ) ;
#172 = PRESENTATION_LAYER_ASSIGNMENT (  '', '', ( #171 ) ) ;
#173 = MECHANICAL_DESIGN_GEOMETRIC_PRESENTATION_REPRESENTATION (  '', ( #171 ), #163 ) ;
#174 = LENGTH_MEASURE_WITH_UNIT ( LENGTH_MEASURE( 0.02539999999999999900 ), #39 );
#175 = AXIS2_PLACEMENT_3D ( 'NONE', #43, #44, #45 ) ;
#176 = PRODUCT_DEFINITION_FORMATION_WITH_SPECIFIED_SOURCE ( 'ANY', '', #106, .NOT_KNOWN. ) ;
#177 = DIRECTION ( 'NONE',  ( -0.0000000000000000000, -0.0000000000000000000, 1.000000000000000000 ) ) ;
#178 = LINE ( 'NONE', #179, #82 ) ;
#179 = CARTESIAN_POINT ( 'NONE',  ( 2.000000000000000000, 0.5000000000000000000, -1.224646799147353200E-016 ) ) ;
#180 = DIRECTION ( 'NONE',  ( -0.0000000000000000000, -1.000000000000000000, -0.0000000000000000000 ) ) ;
#181 = CARTESIAN_POINT ( 'NONE',  ( 2.000000000000000000, 0.5000000000000000000, -1.224646799147353200E-016 ) ) ;
#182 = DIRECTION ( 'NONE',  ( -6.123233995736766000E-017, 0.0000000000000000000, -1.000000000000000000 ) ) ;
#183 = DIRECTION ( 'NONE',  ( -1.000000000000000000, 0.0000000000000000000, 6.123233995736766000E-017 ) ) ;
#184 = PLANE ( 'NONE',  #84 ) ;
#185 = CARTESIAN_POINT ( 'NONE',  ( 1.999999999999999300, 0.5000000000000000000, -2.000000000000000000 ) ) ;
#186 = DIRECTION ( 'NONE',  ( -1.000000000000000000, 0.0000000000000000000, 2.731847993664263200E-016 ) ) ;
#187 = DIRECTION ( 'NONE',  ( 2.731847993664263200E-016, 0.0000000000000000000, 1.000000000000000000 ) ) ;
#188 = PLANE ( 'NONE',  #87 ) ;
#189 = CARTESIAN_POINT ( 'NONE',  ( 0.0000000000000000000, 0.5000000000000000000, -2.000000000000000000 ) ) ;
#190 = DIRECTION ( 'NONE',  ( 0.0000000000000000000, 0.0000000000000000000, 1.000000000000000000 ) ) ;
#191 = DIRECTION ( 'NONE',  ( 1.000000000000000000, 0.0000000000000000000, -0.0000000000000000000 ) ) ;
#192 = PLANE ( 'NONE',  #110 ) ;
#193 = CARTESIAN_POINT ( 'NONE',  ( 0.0000000000000000000, 0.5000000000000000000, 0.0000000000000000000 ) ) ;
#194 = DIRECTION ( 'NONE',  ( 1.000000000000000000, -0.0000000000000000000, 0.0000000000000000000 ) ) ;
#195 = DIRECTION ( 'NONE',  ( 0.0000000000000000000, 0.0000000000000000000, -1.000000000000000000 ) ) ;
#196 = PLANE ( 'NONE',  #79 ) ;
#197 = CARTESIAN_POINT ( 'NONE',  ( 0.0000000000000000000, 0.5000000000000000000, 0.0000000000000000000 ) ) ;
#198 = DIRECTION ( 'NONE',  ( 0.0000000000000000000, -1.000000000000000000, -0.0000000000000000000 ) ) ;
#199 = DIRECTION ( 'NONE',  ( 0.0000000000000000000, 0.0000000000000000000, -1.000000000000000000 ) ) ;
#200 = PLANE ( 'NONE',  #111 ) ;
#201 = CARTESIAN_POINT ( 'NONE',  ( 0.0000000000000000000, 0.0000000000000000000, 0.0000000000000000000 ) ) ;
#202 = DIRECTION ( 'NONE',  ( 0.0000000000000000000, -1.000000000000000000, -0.0000000000000000000 ) ) ;
#203 = DIRECTION ( 'NONE',  ( 0.0000000000000000000, 0.0000000000000000000, -1.000000000000000000 ) ) ;
#204 = LINE ( 'NONE', #205, #156 ) ;
#205 = CARTESIAN_POINT ( 'NONE',  ( 1.999999999999999300, 0.0000000000000000000, -2.000000000000000000 ) ) ;
#206 = DIRECTION ( 'NONE',  ( -2.731847993664263200E-016, -0.0000000000000000000, -1.000000000000000000 ) ) ;
#207 = LINE ( 'NONE', #208, #164 ) ;
#208 = CARTESIAN_POINT ( 'NONE',  ( 1.999999999999999300, 0.5000000000000000000, -2.000000000000000000 ) ) ;
#209 = DIRECTION ( 'NONE',  ( -0.0000000000000000000, -1.000000000000000000, -0.0000000000000000000 ) ) ;
#210 = LINE ( 'NONE', #211, #166 ) ;
#211 = CARTESIAN_POINT ( 'NONE',  ( 0.0000000000000000000, 0.5000000000000000000, 0.0000000000000000000 ) ) ;
ENDSEC;
END-ISO-10303-21;
