ISO-10303-21;
HEADER;
FILE_DESCRIPTION (( 'STEP AP214' ),
    '1' );
FILE_NAME ('QH250F-F2.step',
    '2012-04-20T21:03:39',
    ( '' ),
    ( '' ),
    'SwSTEP 2.0',
    'SolidWorks 2012',
    '' );
FILE_SCHEMA (( 'AUTOMOTIVE_DESIGN' ));
ENDSEC;

DATA;
#1 = ADVANCED_FACE ( 'NONE', ( #61 ), #37, .F. ) ;
#2 = ADVANCED_FACE ( 'NONE', ( #62, #57 ), #114, .F. ) ;
#3 = ADVANCED_FACE ( 'NONE', ( #56 ), #41, .F. ) ;
#4 = ADVANCED_FACE ( 'NONE', ( #60 ), #260, .F. ) ;
#5 = ADVANCED_FACE ( 'NONE', ( #58, #261 ), #124, .F. ) ;
#6 = EDGE_CURVE ( 'NONE', #74, #75, #264, .T. ) ;
#7 = EDGE_CURVE ( 'NONE', #77, #72, #268, .T. ) ;
#8 = EDGE_CURVE ( 'NONE', #316, #314, #40, .T. ) ;
#9 = ADVANCED_FACE ( 'NONE', ( #252 ), #273, .F. ) ;
#10 = ADVANCED_FACE ( 'NONE', ( #164 ), #277, .F. ) ;
#11 = ADVANCED_FACE ( 'NONE', ( #166 ), #281, .F. ) ;
#12 = EDGE_CURVE ( 'NONE', #313, #317, #43, .T. ) ;
#13 = EDGE_CURVE ( 'NONE', #317, #316, #289, .T. ) ;
#14 = EDGE_CURVE ( 'NONE', #317, #313, #42, .T. ) ;
#15 = EDGE_CURVE ( 'NONE', #317, #315, #295, .T. ) ;
#16 = EDGE_CURVE ( 'NONE', #319, #318, #212, .T. ) ;
#17 = EDGE_CURVE ( 'NONE', #320, #318, #44, .T. ) ;
#18 = EDGE_CURVE ( 'NONE', #315, #319, #45, .T. ) ;
#19 = EDGE_CURVE ( 'NONE', #315, #320, #221, .T. ) ;
#20 = EDGE_CURVE ( 'NONE', #319, #315, #46, .T. ) ;
#21 = EDGE_CURVE ( 'NONE', #313, #314, #227, .T. ) ;
#22 = EDGE_CURVE ( 'NONE', #314, #316, #47, .T. ) ;
#23 = EDGE_CURVE ( 'NONE', #318, #320, #48, .T. ) ;
#24 = EDGE_CURVE ( 'NONE', #64, #77, #236, .T. ) ;
#25 = EDGE_CURVE ( 'NONE', #65, #76, #239, .T. ) ;
#26 = EDGE_CURVE ( 'NONE', #73, #64, #242, .T. ) ;
#27 = EDGE_CURVE ( 'NONE', #72, #74, #245, .T. ) ;
#28 = EDGE_CURVE ( 'NONE', #77, #76, #126, .T. ) ;
#29 = EDGE_CURVE ( 'NONE', #76, #74, #129, .T. ) ;
#30 = EDGE_CURVE ( 'NONE', #313, #319, #132, .T. ) ;
#31 = EDGE_CURVE ( 'NONE', #75, #65, #135, .T. ) ;
#32 = EDGE_CURVE ( 'NONE', #72, #73, #138, .T. ) ;
#33 = EDGE_CURVE ( 'NONE', #64, #65, #141, .T. ) ;
#34 = ADVANCED_FACE ( 'NONE', ( #180 ), #49, .F. ) ;
#35 = EDGE_CURVE ( 'NONE', #73, #75, #146, .T. ) ;
#36 = ADVANCED_FACE ( 'NONE', ( #349 ), #50, .F. ) ;
#37 = CONICAL_SURFACE ( 'NONE', #63, 0.1600000000000000000, 0.7155849933176778900 ) ;
#38 = ADVANCED_FACE ( 'NONE', ( #352 ), #152, .F. ) ;
#39 = ADVANCED_FACE ( 'NONE', ( #346 ), #359, .F. ) ;
#40 = CIRCLE ( 'NONE', #163, 0.1600000000000000000 ) ;
#41 = CONICAL_SURFACE ( 'NONE', #259, 0.1600000000000000000, 0.7155849933176778900 ) ;
#42 = CIRCLE ( 'NONE', #169, 0.07812499999999952800 ) ;
#43 = CIRCLE ( 'NONE', #165, 0.07812499999999952800 ) ;
#44 = CIRCLE ( 'NONE', #173, 0.1600000000000000000 ) ;
#45 = CIRCLE ( 'NONE', #175, 0.07812499999999952800 ) ;
#46 = CIRCLE ( 'NONE', #171, 0.07812499999999952800 ) ;
#47 = CIRCLE ( 'NONE', #178, 0.1600000000000000000 ) ;
#48 = CIRCLE ( 'NONE', #176, 0.1600000000000000000 ) ;
#49 = CONICAL_SURFACE ( 'NONE', #351, 0.1600000000000000000, 0.7155849933176778900 ) ;
#50 = CONICAL_SURFACE ( 'NONE', #355, 0.1600000000000000000, 0.7155849933176778900 ) ;
#51 = COLOUR_RGB ( '',0.5686274509803921400, 0.5686274509803921400, 0.5882352941176470800 ) ;
#52 = PRODUCT_DEFINITION ( 'UNKNOWN', '', #188, #249 ) ;
#53 = COLOUR_RGB ( '',0.5686274509803921400, 0.5686274509803921400, 0.5882352941176470800 ) ;
#54 = PRODUCT_RELATED_PRODUCT_CATEGORY ( 'part', '', ( #302 ) ) ;
#55 = AXIS2_PLACEMENT_3D ( 'NONE', #115, #116, #117 ) ;
#56 = FACE_OUTER_BOUND ( 'NONE', #85, .T. ) ;
#57 = FACE_OUTER_BOUND ( 'NONE', #87, .T. ) ;
#58 = FACE_BOUND ( 'NONE', #82, .T. ) ;
#59 = CLOSED_SHELL ( 'NONE', ( #34, #36, #39, #38, #11, #10, #9, #5, #4, #3, #2, #1 ) ) ;
#60 = FACE_OUTER_BOUND ( 'NONE', #84, .T. ) ;
#61 = FACE_OUTER_BOUND ( 'NONE', #88, .T. ) ;
#62 = FACE_BOUND ( 'NONE', #86, .T. ) ;
#63 = AXIS2_PLACEMENT_3D ( 'NONE', #111, #112, #113 ) ;
#64 = VERTEX_POINT ( 'NONE', #159 ) ;
#65 = VERTEX_POINT ( 'NONE', #160 ) ;
#66 = ORIENTED_EDGE ( 'NONE', *, *, #17, .F. ) ;
#67 = ORIENTED_EDGE ( 'NONE', *, *, #32, .T. ) ;
#68 = ORIENTED_EDGE ( 'NONE', *, *, #26, .T. ) ;
#69 = ORIENTED_EDGE ( 'NONE', *, *, #20, .T. ) ;
#70 = ORIENTED_EDGE ( 'NONE', *, *, #15, .F. ) ;
#71 = ORIENTED_EDGE ( 'NONE', *, *, #12, .F. ) ;
#72 = VERTEX_POINT ( 'NONE', #161 ) ;
#73 = VERTEX_POINT ( 'NONE', #363 ) ;
#74 = VERTEX_POINT ( 'NONE', #364 ) ;
#75 = VERTEX_POINT ( 'NONE', #365 ) ;
#76 = VERTEX_POINT ( 'NONE', #366 ) ;
#77 = VERTEX_POINT ( 'NONE', #367 ) ;
#78 = EDGE_LOOP ( 'NONE', ( #98, #100, #99, #101 ) ) ;
#79 = EDGE_LOOP ( 'NONE', ( #341, #90, #340, #91 ) ) ;
#80 = EDGE_LOOP ( 'NONE', ( #92, #94, #93, #102 ) ) ;
#81 = EDGE_LOOP ( 'NONE', ( #306, #308, #307, #309 ) ) ;
#82 = EDGE_LOOP ( 'NONE', ( #311, #66 ) ) ;
#83 = EDGE_LOOP ( 'NONE', ( #310, #67, #68, #312 ) ) ;
#84 = EDGE_LOOP ( 'NONE', ( #70, #71, #325, #69 ) ) ;
#85 = EDGE_LOOP ( 'NONE', ( #327, #328, #329, #326 ) ) ;
#86 = EDGE_LOOP ( 'NONE', ( #331, #332 ) ) ;
#87 = EDGE_LOOP ( 'NONE', ( #334, #333, #335, #330 ) ) ;
#88 = EDGE_LOOP ( 'NONE', ( #337, #338, #339, #336 ) ) ;
#89 =( GEOMETRIC_REPRESENTATION_CONTEXT ( 3 ) GLOBAL_UNCERTAINTY_ASSIGNED_CONTEXT ( ( #254 ) ) GLOBAL_UNIT_ASSIGNED_CONTEXT ( ( #200, #201, #202 ) ) REPRESENTATION_CONTEXT ( 'NONE', 'WORKASPACE' ) );
#90 = ORIENTED_EDGE ( 'NONE', *, *, #6, .T. ) ;
#91 = ORIENTED_EDGE ( 'NONE', *, *, #32, .F. ) ;
#92 = ORIENTED_EDGE ( 'NONE', *, *, #35, .T. ) ;
#93 = ORIENTED_EDGE ( 'NONE', *, *, #33, .F. ) ;
#94 = ORIENTED_EDGE ( 'NONE', *, *, #31, .T. ) ;
#95 = ORIENTED_EDGE ( 'NONE', *, *, #18, .T. ) ;
#96 = ORIENTED_EDGE ( 'NONE', *, *, #15, .T. ) ;
#97 = ORIENTED_EDGE ( 'NONE', *, *, #30, .F. ) ;
#98 = ORIENTED_EDGE ( 'NONE', *, *, #28, .T. ) ;
#99 = ORIENTED_EDGE ( 'NONE', *, *, #27, .F. ) ;
#100 = ORIENTED_EDGE ( 'NONE', *, *, #29, .T. ) ;
#101 = ORIENTED_EDGE ( 'NONE', *, *, #7, .F. ) ;
#102 = ORIENTED_EDGE ( 'NONE', *, *, #26, .F. ) ;
#103 = ORIENTED_EDGE ( 'NONE', *, *, #18, .F. ) ;
#104 = ORIENTED_EDGE ( 'NONE', *, *, #17, .T. ) ;
#105 = ORIENTED_EDGE ( 'NONE', *, *, #19, .T. ) ;
#106 = ORIENTED_EDGE ( 'NONE', *, *, #16, .F. ) ;
#107 = ORIENTED_EDGE ( 'NONE', *, *, #14, .F. ) ;
#108 = ORIENTED_EDGE ( 'NONE', *, *, #12, .T. ) ;
#109 = ORIENTED_EDGE ( 'NONE', *, *, #22, .F. ) ;
#110 = ORIENTED_EDGE ( 'NONE', *, *, #13, .T. ) ;
#111 = CARTESIAN_POINT ( 'NONE',  ( 0.3749999999999999400, -0.1250000000000000600, -0.3749999999999999400 ) ) ;
#112 = DIRECTION ( 'NONE',  ( 0.0000000000000000000, -1.000000000000000000, 0.0000000000000000000 ) ) ;
#113 = DIRECTION ( 'NONE',  ( 0.0000000000000000000, 0.0000000000000000000, 1.000000000000000000 ) ) ;
#114 = PLANE ( 'NONE',  #55 ) ;
#115 = CARTESIAN_POINT ( 'NONE',  ( 0.0000000000000000000, -0.1250000000000000000, 0.0000000000000000000 ) ) ;
#116 = DIRECTION ( 'NONE',  ( 0.0000000000000000000, 1.000000000000000000, 0.0000000000000000000 ) ) ;
#117 = DIRECTION ( 'NONE',  ( 0.0000000000000000000, 0.0000000000000000000, -1.000000000000000000 ) ) ;
#118 = CARTESIAN_POINT ( 'NONE',  ( 0.3749999999999999400, 0.1250000000000000600, -0.3749999999999999400 ) ) ;
#119 = DIRECTION ( 'NONE',  ( -0.0000000000000000000, 1.000000000000000000, -0.0000000000000000000 ) ) ;
#120 = DIRECTION ( 'NONE',  ( 0.0000000000000000000, 0.0000000000000000000, 1.000000000000000000 ) ) ;
#121 = CARTESIAN_POINT ( 'NONE',  ( 0.3749999999999999400, 0.1250000000000000000, -0.3749999999999999400 ) ) ;
#122 = DIRECTION ( 'NONE',  ( -0.0000000000000000000, 1.000000000000000000, -0.0000000000000000000 ) ) ;
#123 = DIRECTION ( 'NONE',  ( 0.0000000000000000000, 0.0000000000000000000, 1.000000000000000000 ) ) ;
#124 = PLANE ( 'NONE',  #253 ) ;
#125 = CARTESIAN_POINT ( 'NONE',  ( 0.0000000000000000000, 0.1250000000000000000, 0.0000000000000000000 ) ) ;
#126 = LINE ( 'NONE', #127, #343 ) ;
#127 = CARTESIAN_POINT ( 'NONE',  ( 0.0000000000000000000, 0.1250000000000000000, 0.0000000000000000000 ) ) ;
#128 = DIRECTION ( 'NONE',  ( -0.0000000000000000000, -1.000000000000000000, -0.0000000000000000000 ) ) ;
#129 = LINE ( 'NONE', #130, #344 ) ;
#130 = CARTESIAN_POINT ( 'NONE',  ( 0.7500000000000001100, -0.1250000000000000000, 3.061616997868381800E-017 ) ) ;
#131 = DIRECTION ( 'NONE',  ( 1.000000000000000000, 0.0000000000000000000, 4.082155997157842000E-017 ) ) ;
#132 = LINE ( 'NONE', #133, #345 ) ;
#133 = CARTESIAN_POINT ( 'NONE',  ( 0.3749999999999999400, 0.1250000000000000000, -0.2968750000000002800 ) ) ;
#134 = DIRECTION ( 'NONE',  ( -0.0000000000000000000, 1.000000000000000000, -0.0000000000000000000 ) ) ;
#135 = LINE ( 'NONE', #136, #347 ) ;
#136 = CARTESIAN_POINT ( 'NONE',  ( 0.0000000000000000000, -0.1250000000000000000, -0.7499999999999998900 ) ) ;
#137 = DIRECTION ( 'NONE',  ( -1.000000000000000000, 0.0000000000000000000, 1.821231995776175700E-016 ) ) ;
#138 = LINE ( 'NONE', #139, #348 ) ;
#139 = CARTESIAN_POINT ( 'NONE',  ( 0.7499999999999998900, 0.1250000000000000000, -0.7500000000000001100 ) ) ;
#140 = DIRECTION ( 'NONE',  ( -1.821231995776175700E-016, -0.0000000000000000000, -1.000000000000000000 ) ) ;
#141 = LINE ( 'NONE', #142, #350 ) ;
#142 = CARTESIAN_POINT ( 'NONE',  ( 0.0000000000000000000, 0.1250000000000000000, -0.7499999999999998900 ) ) ;
#143 = DIRECTION ( 'NONE',  ( -0.0000000000000000000, -1.000000000000000000, -0.0000000000000000000 ) ) ;
#144 = DIRECTION ( 'NONE',  ( 0.0000000000000000000, -1.000000000000000000, 0.0000000000000000000 ) ) ;
#145 = DIRECTION ( 'NONE',  ( 0.0000000000000000000, 0.0000000000000000000, 1.000000000000000000 ) ) ;
#146 = LINE ( 'NONE', #147, #354 ) ;
#147 = CARTESIAN_POINT ( 'NONE',  ( 0.7499999999999998900, 0.1250000000000000000, -0.7500000000000001100 ) ) ;
#148 = DIRECTION ( 'NONE',  ( -0.0000000000000000000, -1.000000000000000000, -0.0000000000000000000 ) ) ;
#149 = CARTESIAN_POINT ( 'NONE',  ( 0.3749999999999999400, 0.1250000000000000600, -0.3749999999999999400 ) ) ;
#150 = DIRECTION ( 'NONE',  ( -0.0000000000000000000, 1.000000000000000000, -0.0000000000000000000 ) ) ;
#151 = DIRECTION ( 'NONE',  ( 0.0000000000000000000, 0.0000000000000000000, 1.000000000000000000 ) ) ;
#152 = PLANE ( 'NONE',  #357 ) ;
#153 = CARTESIAN_POINT ( 'NONE',  ( 0.7500000000000001100, 0.1250000000000000000, 3.061616997868381800E-017 ) ) ;
#154 = DIRECTION ( 'NONE',  ( 4.082155997157842000E-017, 0.0000000000000000000, -1.000000000000000000 ) ) ;
#155 = DIRECTION ( 'NONE',  ( -1.000000000000000000, 0.0000000000000000000, -4.082155997157842000E-017 ) ) ;
#156 = CARTESIAN_POINT ( 'NONE',  ( 0.3749999999999999400, 0.1250000000000000000, -0.3749999999999999400 ) ) ;
#157 = DIRECTION ( 'NONE',  ( -0.0000000000000000000, 1.000000000000000000, -0.0000000000000000000 ) ) ;
#158 = DIRECTION ( 'NONE',  ( 0.0000000000000000000, 0.0000000000000000000, 1.000000000000000000 ) ) ;
#159 = CARTESIAN_POINT ( 'NONE',  ( 0.0000000000000000000, 0.1250000000000000000, -0.7499999999999998900 ) ) ;
#160 = CARTESIAN_POINT ( 'NONE',  ( 0.0000000000000000000, -0.1250000000000000000, -0.7499999999999998900 ) ) ;
#161 = CARTESIAN_POINT ( 'NONE',  ( 0.7500000000000001100, 0.1250000000000000000, 3.061616997868381800E-017 ) ) ;
#162 = VECTOR ( 'NONE', #270, 39.37007874015748100 ) ;
#163 = AXIS2_PLACEMENT_3D ( 'NONE', #267, #271, #272 ) ;
#164 = FACE_OUTER_BOUND ( 'NONE', #80, .T. ) ;
#165 = AXIS2_PLACEMENT_3D ( 'NONE', #285, #286, #287 ) ;
#166 = FACE_OUTER_BOUND ( 'NONE', #79, .T. ) ;
#167 = AXIS2_PLACEMENT_3D ( 'NONE', #278, #279, #280 ) ;
#168 = AXIS2_PLACEMENT_3D ( 'NONE', #282, #283, #284 ) ;
#169 = AXIS2_PLACEMENT_3D ( 'NONE', #288, #292, #293 ) ;
#170 = VECTOR ( 'NONE', #291, 39.37007874015748100 ) ;
#171 = AXIS2_PLACEMENT_3D ( 'NONE', #220, #224, #225 ) ;
#172 = VECTOR ( 'NONE', #297, 39.37007874015748100 ) ;
#173 = AXIS2_PLACEMENT_3D ( 'NONE', #294, #215, #216 ) ;
#174 = VECTOR ( 'NONE', #214, 39.37007874015748100 ) ;
#175 = AXIS2_PLACEMENT_3D ( 'NONE', #217, #218, #219 ) ;
#176 = AXIS2_PLACEMENT_3D ( 'NONE', #232, #233, #234 ) ;
#177 = VECTOR ( 'NONE', #223, 39.37007874015748100 ) ;
#178 = AXIS2_PLACEMENT_3D ( 'NONE', #226, #230, #231 ) ;
#179 = VECTOR ( 'NONE', #229, 39.37007874015748100 ) ;
#180 = FACE_OUTER_BOUND ( 'NONE', #321, .T. ) ;
#181 = VECTOR ( 'NONE', #238, 39.37007874015748100 ) ;
#182 = VECTOR ( 'NONE', #241, 39.37007874015748100 ) ;
#183 = STYLED_ITEM ( 'NONE', ( #198 ), #257 ) ;
#184 = PRESENTATION_LAYER_ASSIGNMENT (  '', '', ( #183 ) ) ;
#185 = MECHANICAL_DESIGN_GEOMETRIC_PRESENTATION_REPRESENTATION (  '', ( #183 ), #89 ) ;
#186 = LENGTH_MEASURE_WITH_UNIT ( LENGTH_MEASURE( 0.02539999999999999900 ), #199 );
#187 = AXIS2_PLACEMENT_3D ( 'NONE', #205, #206, #207 ) ;
#188 = PRODUCT_DEFINITION_FORMATION_WITH_SPECIFIED_SOURCE ( 'ANY', '', #302, .NOT_KNOWN. ) ;
#189 =( LENGTH_UNIT ( ) NAMED_UNIT ( * ) SI_UNIT ( $, .METRE. ) );
#190 =( CONVERSION_BASED_UNIT ( 'INCH', #362 ) LENGTH_UNIT ( ) NAMED_UNIT ( #300 ) );
#191 =( NAMED_UNIT ( * ) PLANE_ANGLE_UNIT ( ) SI_UNIT ( $, .RADIAN. ) );
#192 =( NAMED_UNIT ( * ) SI_UNIT ( $, .STERADIAN. ) SOLID_ANGLE_UNIT ( ) );
#193 = FILL_AREA_STYLE_COLOUR ( '', #51 ) ;
#194 = FILL_AREA_STYLE ('',( #193 ) ) ;
#195 = SURFACE_STYLE_FILL_AREA ( #194 ) ;
#196 = SURFACE_SIDE_STYLE ('',( #195 ) ) ;
#197 = SURFACE_STYLE_USAGE ( .BOTH. , #196 ) ;
#198 = PRESENTATION_STYLE_ASSIGNMENT (( #197 ) ) ;
#199 =( LENGTH_UNIT ( ) NAMED_UNIT ( * ) SI_UNIT ( $, .METRE. ) );
#200 =( CONVERSION_BASED_UNIT ( 'INCH', #186 ) LENGTH_UNIT ( ) NAMED_UNIT ( #301 ) );
#201 =( NAMED_UNIT ( * ) PLANE_ANGLE_UNIT ( ) SI_UNIT ( $, .RADIAN. ) );
#202 =( NAMED_UNIT ( * ) SI_UNIT ( $, .STERADIAN. ) SOLID_ANGLE_UNIT ( ) );
#203 = APPLICATION_CONTEXT ( 'automotive_design' ) ;
#204 = APPLICATION_CONTEXT ( 'automotive_design' ) ;
#205 = CARTESIAN_POINT ( 'NONE',  ( 0.0000000000000000000, 0.0000000000000000000, 0.0000000000000000000 ) ) ;
#206 = DIRECTION ( 'NONE',  ( 0.0000000000000000000, 0.0000000000000000000, 1.000000000000000000 ) ) ;
#207 = DIRECTION ( 'NONE',  ( 1.000000000000000000, 0.0000000000000000000, 0.0000000000000000000 ) ) ;
#208 = SHAPE_DEFINITION_REPRESENTATION ( #248, #257 ) ;
#209 = APPLICATION_PROTOCOL_DEFINITION ( 'draft international standard', 'automotive_design', 1998, #203 ) ;
#210 = PRODUCT_CONTEXT ( 'NONE', #203, 'mechanical' ) ;
#211 = APPLICATION_PROTOCOL_DEFINITION ( 'draft international standard', 'automotive_design', 1998, #204 ) ;
#212 = LINE ( 'NONE', #213, #174 ) ;
#213 = CARTESIAN_POINT ( 'NONE',  ( 0.3749999999999999400, 0.1250000000000000600, -0.2149999999999999700 ) ) ;
#214 = DIRECTION ( 'NONE',  ( 0.0000000000000000000, 0.7547095802227702400, 0.6560590289905093900 ) ) ;
#215 = DIRECTION ( 'NONE',  ( -0.0000000000000000000, 1.000000000000000000, -0.0000000000000000000 ) ) ;
#216 = DIRECTION ( 'NONE',  ( 0.0000000000000000000, 0.0000000000000000000, 1.000000000000000000 ) ) ;
#217 = CARTESIAN_POINT ( 'NONE',  ( 0.3749999999999999400, 0.03081358665877988900, -0.3749999999999999400 ) ) ;
#218 = DIRECTION ( 'NONE',  ( -0.0000000000000000000, 1.000000000000000000, -0.0000000000000000000 ) ) ;
#219 = DIRECTION ( 'NONE',  ( 0.0000000000000000000, 0.0000000000000000000, 1.000000000000000000 ) ) ;
#220 = CARTESIAN_POINT ( 'NONE',  ( 0.3749999999999999400, 0.03081358665877988900, -0.3749999999999999400 ) ) ;
#221 = LINE ( 'NONE', #222, #177 ) ;
#222 = CARTESIAN_POINT ( 'NONE',  ( 0.3749999999999999400, 0.1250000000000000600, -0.5349999999999999200 ) ) ;
#223 = DIRECTION ( 'NONE',  ( 8.034405899049479700E-017, 0.7547095802227702400, -0.6560590289905093900 ) ) ;
#224 = DIRECTION ( 'NONE',  ( -0.0000000000000000000, 1.000000000000000000, -0.0000000000000000000 ) ) ;
#225 = DIRECTION ( 'NONE',  ( 0.0000000000000000000, 0.0000000000000000000, 1.000000000000000000 ) ) ;
#226 = CARTESIAN_POINT ( 'NONE',  ( 0.3749999999999999400, -0.1250000000000000600, -0.3749999999999999400 ) ) ;
#227 = LINE ( 'NONE', #228, #179 ) ;
#228 = CARTESIAN_POINT ( 'NONE',  ( 0.3749999999999999400, -0.1250000000000000600, -0.2149999999999999700 ) ) ;
#229 = DIRECTION ( 'NONE',  ( 0.0000000000000000000, -0.7547095802227702400, 0.6560590289905093900 ) ) ;
#230 = DIRECTION ( 'NONE',  ( -0.0000000000000000000, 1.000000000000000000, -0.0000000000000000000 ) ) ;
#231 = DIRECTION ( 'NONE',  ( 0.0000000000000000000, 0.0000000000000000000, 1.000000000000000000 ) ) ;
#232 = CARTESIAN_POINT ( 'NONE',  ( 0.3749999999999999400, 0.1250000000000000600, -0.3749999999999999400 ) ) ;
#233 = DIRECTION ( 'NONE',  ( -0.0000000000000000000, 1.000000000000000000, -0.0000000000000000000 ) ) ;
#234 = DIRECTION ( 'NONE',  ( 0.0000000000000000000, 0.0000000000000000000, 1.000000000000000000 ) ) ;
#235 = CARTESIAN_POINT ( 'NONE',  ( 0.3749999999999999400, -0.1250000000000000600, -0.3749999999999999400 ) ) ;
#236 = LINE ( 'NONE', #237, #181 ) ;
#237 = CARTESIAN_POINT ( 'NONE',  ( 0.0000000000000000000, 0.1250000000000000000, 0.0000000000000000000 ) ) ;
#238 = DIRECTION ( 'NONE',  ( -0.0000000000000000000, -0.0000000000000000000, 1.000000000000000000 ) ) ;
#239 = LINE ( 'NONE', #240, #182 ) ;
#240 = CARTESIAN_POINT ( 'NONE',  ( 0.0000000000000000000, -0.1250000000000000000, 0.0000000000000000000 ) ) ;
#241 = DIRECTION ( 'NONE',  ( 0.0000000000000000000, 0.0000000000000000000, 1.000000000000000000 ) ) ;
#242 = LINE ( 'NONE', #243, #303 ) ;
#243 = CARTESIAN_POINT ( 'NONE',  ( 0.0000000000000000000, 0.1250000000000000000, -0.7499999999999998900 ) ) ;
#244 = DIRECTION ( 'NONE',  ( -1.000000000000000000, -0.0000000000000000000, 1.821231995776175700E-016 ) ) ;
#245 = LINE ( 'NONE', #246, #342 ) ;
#246 = CARTESIAN_POINT ( 'NONE',  ( 0.7500000000000001100, 0.1250000000000000000, 3.061616997868381800E-017 ) ) ;
#247 = DIRECTION ( 'NONE',  ( -0.0000000000000000000, -1.000000000000000000, -0.0000000000000000000 ) ) ;
#248 = PRODUCT_DEFINITION_SHAPE ( 'NONE', 'NONE',  #52 ) ;
#249 = PRODUCT_DEFINITION_CONTEXT ( 'detailed design', #204, 'design' ) ;
#250 = MANIFOLD_SOLID_BREP ( 'Mirror1', #59 ) ;
#251 = AXIS2_PLACEMENT_3D ( 'NONE', #274, #275, #276 ) ;
#252 = FACE_OUTER_BOUND ( 'NONE', #81, .T. ) ;
#253 = AXIS2_PLACEMENT_3D ( 'NONE', #125, #262, #263 ) ;
#254 = UNCERTAINTY_MEASURE_WITH_UNIT (LENGTH_MEASURE( 1.000000000000000100E-005 ), #200, 'distance_accuracy_value', 'NONE');
#255 = UNCERTAINTY_MEASURE_WITH_UNIT (LENGTH_MEASURE( 1.000000000000000100E-005 ), #190, 'distance_accuracy_value', 'NONE');
#256 = UNCERTAINTY_MEASURE_WITH_UNIT (LENGTH_MEASURE( 1.000000000000000100E-005 ), #375, 'distance_accuracy_value', 'NONE');
#257 = ADVANCED_BREP_SHAPE_REPRESENTATION ( 'QH250F-F2', ( #250, #187 ), #305 ) ;
#258 = AXIS2_PLACEMENT_3D ( 'NONE', #121, #122, #123 ) ;
#259 = AXIS2_PLACEMENT_3D ( 'NONE', #118, #119, #120 ) ;
#260 = CYLINDRICAL_SURFACE ( 'NONE', #258, 0.07812499999999969500 ) ;
#261 = FACE_OUTER_BOUND ( 'NONE', #83, .T. ) ;
#262 = DIRECTION ( 'NONE',  ( 0.0000000000000000000, -1.000000000000000000, 0.0000000000000000000 ) ) ;
#263 = DIRECTION ( 'NONE',  ( 0.0000000000000000000, 0.0000000000000000000, -1.000000000000000000 ) ) ;
#264 = LINE ( 'NONE', #265, #298 ) ;
#265 = CARTESIAN_POINT ( 'NONE',  ( 0.7499999999999998900, -0.1250000000000000000, -0.7500000000000001100 ) ) ;
#266 = DIRECTION ( 'NONE',  ( -1.821231995776175700E-016, 0.0000000000000000000, -1.000000000000000000 ) ) ;
#267 = CARTESIAN_POINT ( 'NONE',  ( 0.3749999999999999400, -0.1250000000000000600, -0.3749999999999999400 ) ) ;
#268 = LINE ( 'NONE', #269, #162 ) ;
#269 = CARTESIAN_POINT ( 'NONE',  ( 0.7500000000000001100, 0.1250000000000000000, 3.061616997868381800E-017 ) ) ;
#270 = DIRECTION ( 'NONE',  ( 1.000000000000000000, -0.0000000000000000000, 4.082155997157842000E-017 ) ) ;
#271 = DIRECTION ( 'NONE',  ( -0.0000000000000000000, 1.000000000000000000, -0.0000000000000000000 ) ) ;
#272 = DIRECTION ( 'NONE',  ( 0.0000000000000000000, 0.0000000000000000000, 1.000000000000000000 ) ) ;
#273 = PLANE ( 'NONE',  #251 ) ;
#274 = CARTESIAN_POINT ( 'NONE',  ( 0.0000000000000000000, 0.1250000000000000000, 0.0000000000000000000 ) ) ;
#275 = DIRECTION ( 'NONE',  ( 1.000000000000000000, -0.0000000000000000000, 0.0000000000000000000 ) ) ;
#276 = DIRECTION ( 'NONE',  ( 0.0000000000000000000, 0.0000000000000000000, -1.000000000000000000 ) ) ;
#277 = PLANE ( 'NONE',  #167 ) ;
#278 = CARTESIAN_POINT ( 'NONE',  ( 0.0000000000000000000, 0.1250000000000000000, -0.7499999999999998900 ) ) ;
#279 = DIRECTION ( 'NONE',  ( 1.821231995776175700E-016, -0.0000000000000000000, 1.000000000000000000 ) ) ;
#280 = DIRECTION ( 'NONE',  ( 1.000000000000000000, 0.0000000000000000000, -1.821231995776175700E-016 ) ) ;
#281 = PLANE ( 'NONE',  #168 ) ;
#282 = CARTESIAN_POINT ( 'NONE',  ( 0.7499999999999998900, 0.1250000000000000000, -0.7500000000000001100 ) ) ;
#283 = DIRECTION ( 'NONE',  ( -1.000000000000000000, 0.0000000000000000000, 1.821231995776175500E-016 ) ) ;
#284 = DIRECTION ( 'NONE',  ( 1.821231995776175500E-016, 0.0000000000000000000, 1.000000000000000000 ) ) ;
#285 = CARTESIAN_POINT ( 'NONE',  ( 0.3749999999999999400, -0.03081358665877988900, -0.3749999999999999400 ) ) ;
#286 = DIRECTION ( 'NONE',  ( -0.0000000000000000000, 1.000000000000000000, -0.0000000000000000000 ) ) ;
#287 = DIRECTION ( 'NONE',  ( 0.0000000000000000000, 0.0000000000000000000, 1.000000000000000000 ) ) ;
#288 = CARTESIAN_POINT ( 'NONE',  ( 0.3749999999999999400, -0.03081358665877988900, -0.3749999999999999400 ) ) ;
#289 = LINE ( 'NONE', #290, #170 ) ;
#290 = CARTESIAN_POINT ( 'NONE',  ( 0.3749999999999999400, -0.1250000000000000600, -0.5349999999999999200 ) ) ;
#291 = DIRECTION ( 'NONE',  ( -8.034405899049479700E-017, -0.7547095802227702400, -0.6560590289905093900 ) ) ;
#292 = DIRECTION ( 'NONE',  ( -0.0000000000000000000, 1.000000000000000000, -0.0000000000000000000 ) ) ;
#293 = DIRECTION ( 'NONE',  ( 0.0000000000000000000, 0.0000000000000000000, 1.000000000000000000 ) ) ;
#294 = CARTESIAN_POINT ( 'NONE',  ( 0.3749999999999999400, 0.1250000000000000600, -0.3749999999999999400 ) ) ;
#295 = LINE ( 'NONE', #296, #172 ) ;
#296 = CARTESIAN_POINT ( 'NONE',  ( 0.3749999999999999400, 0.1250000000000000000, -0.4531249999999996700 ) ) ;
#297 = DIRECTION ( 'NONE',  ( -0.0000000000000000000, 1.000000000000000000, -0.0000000000000000000 ) ) ;
#298 = VECTOR ( 'NONE', #266, 39.37007874015748100 ) ;
#299 = DIMENSIONAL_EXPONENTS ( 1.000000000000000000, 0.0000000000000000000, 0.0000000000000000000, 0.0000000000000000000, 0.0000000000000000000, 0.0000000000000000000, 0.0000000000000000000 ) ;
#300 = DIMENSIONAL_EXPONENTS ( 1.000000000000000000, 0.0000000000000000000, 0.0000000000000000000, 0.0000000000000000000, 0.0000000000000000000, 0.0000000000000000000, 0.0000000000000000000 ) ;
#301 = DIMENSIONAL_EXPONENTS ( 1.000000000000000000, 0.0000000000000000000, 0.0000000000000000000, 0.0000000000000000000, 0.0000000000000000000, 0.0000000000000000000, 0.0000000000000000000 ) ;
#302 = PRODUCT ( 'QH250F-F2', 'QH250F-F2', '', ( #210 ) ) ;
#303 = VECTOR ( 'NONE', #244, 39.37007874015748100 ) ;
#304 =( GEOMETRIC_REPRESENTATION_CONTEXT ( 3 ) GLOBAL_UNCERTAINTY_ASSIGNED_CONTEXT ( ( #256 ) ) GLOBAL_UNIT_ASSIGNED_CONTEXT ( ( #375, #376, #377 ) ) REPRESENTATION_CONTEXT ( 'NONE', 'WORKASPACE' ) );
#305 =( GEOMETRIC_REPRESENTATION_CONTEXT ( 3 ) GLOBAL_UNCERTAINTY_ASSIGNED_CONTEXT ( ( #255 ) ) GLOBAL_UNIT_ASSIGNED_CONTEXT ( ( #190, #191, #192 ) ) REPRESENTATION_CONTEXT ( 'NONE', 'WORKASPACE' ) );
#306 = ORIENTED_EDGE ( 'NONE', *, *, #33, .T. ) ;
#307 = ORIENTED_EDGE ( 'NONE', *, *, #28, .F. ) ;
#308 = ORIENTED_EDGE ( 'NONE', *, *, #25, .T. ) ;
#309 = ORIENTED_EDGE ( 'NONE', *, *, #24, .F. ) ;
#310 = ORIENTED_EDGE ( 'NONE', *, *, #7, .T. ) ;
#311 = ORIENTED_EDGE ( 'NONE', *, *, #23, .F. ) ;
#312 = ORIENTED_EDGE ( 'NONE', *, *, #24, .T. ) ;
#313 = VERTEX_POINT ( 'NONE', #378 ) ;
#314 = VERTEX_POINT ( 'NONE', #379 ) ;
#315 = VERTEX_POINT ( 'NONE', #380 ) ;
#316 = VERTEX_POINT ( 'NONE', #381 ) ;
#317 = VERTEX_POINT ( 'NONE', #382 ) ;
#318 = VERTEX_POINT ( 'NONE', #383 ) ;
#319 = VERTEX_POINT ( 'NONE', #384 ) ;
#320 = VERTEX_POINT ( 'NONE', #385 ) ;
#321 = EDGE_LOOP ( 'NONE', ( #108, #110, #109, #324 ) ) ;
#322 = EDGE_LOOP ( 'NONE', ( #103, #105, #104, #106 ) ) ;
#323 = EDGE_LOOP ( 'NONE', ( #107, #96, #95, #97 ) ) ;
#324 = ORIENTED_EDGE ( 'NONE', *, *, #21, .F. ) ;
#325 = ORIENTED_EDGE ( 'NONE', *, *, #30, .T. ) ;
#326 = ORIENTED_EDGE ( 'NONE', *, *, #23, .T. ) ;
#327 = ORIENTED_EDGE ( 'NONE', *, *, #19, .F. ) ;
#328 = ORIENTED_EDGE ( 'NONE', *, *, #20, .F. ) ;
#329 = ORIENTED_EDGE ( 'NONE', *, *, #16, .T. ) ;
#330 = ORIENTED_EDGE ( 'NONE', *, *, #6, .F. ) ;
#331 = ORIENTED_EDGE ( 'NONE', *, *, #22, .T. ) ;
#332 = ORIENTED_EDGE ( 'NONE', *, *, #8, .T. ) ;
#333 = ORIENTED_EDGE ( 'NONE', *, *, #25, .F. ) ;
#334 = ORIENTED_EDGE ( 'NONE', *, *, #29, .F. ) ;
#335 = ORIENTED_EDGE ( 'NONE', *, *, #31, .F. ) ;
#336 = ORIENTED_EDGE ( 'NONE', *, *, #8, .F. ) ;
#337 = ORIENTED_EDGE ( 'NONE', *, *, #13, .F. ) ;
#338 = ORIENTED_EDGE ( 'NONE', *, *, #14, .T. ) ;
#339 = ORIENTED_EDGE ( 'NONE', *, *, #21, .T. ) ;
#340 = ORIENTED_EDGE ( 'NONE', *, *, #35, .F. ) ;
#341 = ORIENTED_EDGE ( 'NONE', *, *, #27, .T. ) ;
#342 = VECTOR ( 'NONE', #247, 39.37007874015748100 ) ;
#343 = VECTOR ( 'NONE', #128, 39.37007874015748100 ) ;
#344 = VECTOR ( 'NONE', #131, 39.37007874015748100 ) ;
#345 = VECTOR ( 'NONE', #134, 39.37007874015748100 ) ;
#346 = FACE_OUTER_BOUND ( 'NONE', #323, .T. ) ;
#347 = VECTOR ( 'NONE', #137, 39.37007874015748100 ) ;
#348 = VECTOR ( 'NONE', #140, 39.37007874015748100 ) ;
#349 = FACE_OUTER_BOUND ( 'NONE', #322, .T. ) ;
#350 = VECTOR ( 'NONE', #143, 39.37007874015748100 ) ;
#351 = AXIS2_PLACEMENT_3D ( 'NONE', #235, #144, #145 ) ;
#352 = FACE_OUTER_BOUND ( 'NONE', #78, .T. ) ;
#353 = AXIS2_PLACEMENT_3D ( 'NONE', #156, #157, #158 ) ;
#354 = VECTOR ( 'NONE', #148, 39.37007874015748100 ) ;
#355 = AXIS2_PLACEMENT_3D ( 'NONE', #149, #150, #151 ) ;
#356 = STYLED_ITEM ( 'NONE', ( #373 ), #250 ) ;
#357 = AXIS2_PLACEMENT_3D ( 'NONE', #153, #154, #155 ) ;
#358 = PRESENTATION_LAYER_ASSIGNMENT (  '', '', ( #356 ) ) ;
#359 = CYLINDRICAL_SURFACE ( 'NONE', #353, 0.07812499999999969500 ) ;
#360 = MECHANICAL_DESIGN_GEOMETRIC_PRESENTATION_REPRESENTATION (  '', ( #356 ), #304 ) ;
#361 = LENGTH_MEASURE_WITH_UNIT ( LENGTH_MEASURE( 0.02539999999999999900 ), #374 );
#362 = LENGTH_MEASURE_WITH_UNIT ( LENGTH_MEASURE( 0.02539999999999999900 ), #189 );
#363 = CARTESIAN_POINT ( 'NONE',  ( 0.7499999999999998900, 0.1250000000000000000, -0.7500000000000001100 ) ) ;
#364 = CARTESIAN_POINT ( 'NONE',  ( 0.7500000000000001100, -0.1250000000000000000, 3.061616997868381800E-017 ) ) ;
#365 = CARTESIAN_POINT ( 'NONE',  ( 0.7499999999999998900, -0.1250000000000000000, -0.7500000000000001100 ) ) ;
#366 = CARTESIAN_POINT ( 'NONE',  ( 0.0000000000000000000, -0.1250000000000000000, 0.0000000000000000000 ) ) ;
#367 = CARTESIAN_POINT ( 'NONE',  ( 0.0000000000000000000, 0.1250000000000000000, 0.0000000000000000000 ) ) ;
#368 = FILL_AREA_STYLE_COLOUR ( '', #53 ) ;
#369 = FILL_AREA_STYLE ('',( #368 ) ) ;
#370 = SURFACE_STYLE_FILL_AREA ( #369 ) ;
#371 = SURFACE_SIDE_STYLE ('',( #370 ) ) ;
#372 = SURFACE_STYLE_USAGE ( .BOTH. , #371 ) ;
#373 = PRESENTATION_STYLE_ASSIGNMENT (( #372 ) ) ;
#374 =( LENGTH_UNIT ( ) NAMED_UNIT ( * ) SI_UNIT ( $, .METRE. ) );
#375 =( CONVERSION_BASED_UNIT ( 'INCH', #361 ) LENGTH_UNIT ( ) NAMED_UNIT ( #299 ) );
#376 =( NAMED_UNIT ( * ) PLANE_ANGLE_UNIT ( ) SI_UNIT ( $, .RADIAN. ) );
#377 =( NAMED_UNIT ( * ) SI_UNIT ( $, .STERADIAN. ) SOLID_ANGLE_UNIT ( ) );
#378 = CARTESIAN_POINT ( 'NONE',  ( 0.3749999999999999400, -0.03081358665877988900, -0.2968750000000004400 ) ) ;
#379 = CARTESIAN_POINT ( 'NONE',  ( 0.3749999999999999400, -0.1250000000000000600, -0.2149999999999999700 ) ) ;
#380 = CARTESIAN_POINT ( 'NONE',  ( 0.3749999999999999400, 0.03081358665877988900, -0.4531249999999995000 ) ) ;
#381 = CARTESIAN_POINT ( 'NONE',  ( 0.3749999999999999400, -0.1250000000000000600, -0.5349999999999999200 ) ) ;
#382 = CARTESIAN_POINT ( 'NONE',  ( 0.3749999999999999400, -0.03081358665877988900, -0.4531249999999995000 ) ) ;
#383 = CARTESIAN_POINT ( 'NONE',  ( 0.3749999999999999400, 0.1250000000000000600, -0.2149999999999999700 ) ) ;
#384 = CARTESIAN_POINT ( 'NONE',  ( 0.3749999999999999400, 0.03081358665877988900, -0.2968750000000004400 ) ) ;
#385 = CARTESIAN_POINT ( 'NONE',  ( 0.3749999999999999400, 0.1250000000000000600, -0.5349999999999999200 ) ) ;
ENDSEC;
END-ISO-10303-21;
