ISO-10303-21;
HEADER;
FILE_DESCRIPTION (( 'STEP AP214' ),
    '1' );
FILE_NAME ('R063-063-DM.step',
    '2012-04-20T21:03:57',
    ( '' ),
    ( '' ),
    'SwSTEP 2.0',
    'SolidWorks 2012',
    '' );
FILE_SCHEMA (( 'AUTOMOTIVE_DESIGN' ));
ENDSEC;

DATA;
#1 = ADVANCED_FACE ( 'NONE', ( #136 ), #91, .F. ) ;
#2 = CIRCLE ( 'NONE', #130, 0.03125000000000001400 ) ;
#3 = ADVANCED_FACE ( 'NONE', ( #137 ), #132, .T. ) ;
#4 = ADVANCED_FACE ( 'NONE', ( #133 ), #85, .T. ) ;
#5 = ADVANCED_FACE ( 'NONE', ( #131 ), #135, .T. ) ;
#6 = EDGE_CURVE ( 'NONE', #110, #111, #77, .T. ) ;
#7 = EDGE_CURVE ( 'NONE', #110, #109, #2, .T. ) ;
#8 = EDGE_CURVE ( 'NONE', #111, #108, #12, .T. ) ;
#9 = EDGE_CURVE ( 'NONE', #109, #108, #44, .T. ) ;
#10 = EDGE_CURVE ( 'NONE', #109, #110, #13, .T. ) ;
#11 = EDGE_CURVE ( 'NONE', #108, #111, #14, .T. ) ;
#12 = CIRCLE ( 'NONE', #103, 0.03125000000000001400 ) ;
#13 = CIRCLE ( 'NONE', #102, 0.03125000000000001400 ) ;
#14 = CIRCLE ( 'NONE', #141, 0.03125000000000001400 ) ;
#15 = PRODUCT_DEFINITION ( 'UNKNOWN', '', #20, #123 ) ;
#16 = COLOUR_RGB ( '',0.5686274509803921400, 0.5686274509803921400, 0.5882352941176470800 ) ;
#17 = PRODUCT_RELATED_PRODUCT_CATEGORY ( 'part', '', ( #149 ) ) ;
#18 = COLOUR_RGB ( '',0.5686274509803921400, 0.5686274509803921400, 0.5882352941176470800 ) ;
#19 = PRESENTATION_LAYER_ASSIGNMENT (  '', '', ( #98 ) ) ;
#20 = PRODUCT_DEFINITION_FORMATION_WITH_SPECIFIED_SOURCE ( 'ANY', '', #149, .NOT_KNOWN. ) ;
#21 = LENGTH_MEASURE_WITH_UNIT ( LENGTH_MEASURE( 0.02539999999999999900 ), #65 );
#22 = AXIS2_PLACEMENT_3D ( 'NONE', #61, #60, #59 ) ;
#23 = MECHANICAL_DESIGN_GEOMETRIC_PRESENTATION_REPRESENTATION (  '', ( #98 ), #145 ) ;
#24 =( NAMED_UNIT ( * ) PLANE_ANGLE_UNIT ( ) SI_UNIT ( $, .RADIAN. ) );
#25 =( CONVERSION_BASED_UNIT ( 'INCH', #100 ) LENGTH_UNIT ( ) NAMED_UNIT ( #147 ) );
#26 =( LENGTH_UNIT ( ) NAMED_UNIT ( * ) SI_UNIT ( $, .METRE. ) );
#27 = PRESENTATION_STYLE_ASSIGNMENT (( #28 ) ) ;
#28 = SURFACE_STYLE_USAGE ( .BOTH. , #29 ) ;
#29 = SURFACE_SIDE_STYLE ('',( #30 ) ) ;
#30 = SURFACE_STYLE_FILL_AREA ( #31 ) ;
#31 = FILL_AREA_STYLE ('',( #32 ) ) ;
#32 = FILL_AREA_STYLE_COLOUR ( '', #18 ) ;
#33 = CARTESIAN_POINT ( 'NONE',  ( 3.827021247335480300E-018, 0.0000000000000000000, 0.03125000000000001400 ) ) ;
#34 = CARTESIAN_POINT ( 'NONE',  ( 3.827021247335480300E-018, 0.06250000000000000000, 0.03125000000000001400 ) ) ;
#35 = CARTESIAN_POINT ( 'NONE',  ( 0.0000000000000000000, 0.06250000000000000000, -0.03125000000000001400 ) ) ;
#36 = CARTESIAN_POINT ( 'NONE',  ( 0.0000000000000000000, 0.0000000000000000000, -0.03125000000000001400 ) ) ;
#37 = DIRECTION ( 'NONE',  ( 0.0000000000000000000, 0.0000000000000000000, 1.000000000000000000 ) ) ;
#38 = DIRECTION ( 'NONE',  ( 0.0000000000000000000, 1.000000000000000000, 0.0000000000000000000 ) ) ;
#39 = CARTESIAN_POINT ( 'NONE',  ( 0.0000000000000000000, 0.0000000000000000000, 0.0000000000000000000 ) ) ;
#40 = DIRECTION ( 'NONE',  ( 0.0000000000000000000, 0.0000000000000000000, 1.000000000000000000 ) ) ;
#41 = DIRECTION ( 'NONE',  ( 0.0000000000000000000, 1.000000000000000000, 0.0000000000000000000 ) ) ;
#42 = DIRECTION ( 'NONE',  ( -0.0000000000000000000, -1.000000000000000000, -0.0000000000000000000 ) ) ;
#43 = CARTESIAN_POINT ( 'NONE',  ( 0.0000000000000000000, 0.06250000000000000000, -0.03125000000000001400 ) ) ;
#44 = LINE ( 'NONE', #43, #95 ) ;
#45 = CARTESIAN_POINT ( 'NONE',  ( 0.0000000000000000000, 0.06250000000000000000, 0.0000000000000000000 ) ) ;
#46 = DIRECTION ( 'NONE',  ( 0.0000000000000000000, 0.0000000000000000000, 1.000000000000000000 ) ) ;
#47 = DIRECTION ( 'NONE',  ( 0.0000000000000000000, 1.000000000000000000, 0.0000000000000000000 ) ) ;
#48 = CARTESIAN_POINT ( 'NONE',  ( 0.0000000000000000000, 0.0000000000000000000, 0.0000000000000000000 ) ) ;
#49 = DIRECTION ( 'NONE',  ( 0.0000000000000000000, 0.0000000000000000000, 1.000000000000000000 ) ) ;
#50 = DIRECTION ( 'NONE',  ( 0.0000000000000000000, 1.000000000000000000, 0.0000000000000000000 ) ) ;
#51 = CARTESIAN_POINT ( 'NONE',  ( 0.0000000000000000000, 0.06250000000000000000, 0.0000000000000000000 ) ) ;
#52 = DIRECTION ( 'NONE',  ( -0.0000000000000000000, -1.000000000000000000, -0.0000000000000000000 ) ) ;
#53 = CARTESIAN_POINT ( 'NONE',  ( 3.827021247335480300E-018, 0.06250000000000000000, 0.03125000000000001400 ) ) ;
#54 = ORIENTED_EDGE ( 'NONE', *, *, #11, .F. ) ;
#55 = ORIENTED_EDGE ( 'NONE', *, *, #7, .T. ) ;
#56 = APPLICATION_PROTOCOL_DEFINITION ( 'draft international standard', 'automotive_design', 1998, #129 ) ;
#57 = PRODUCT_CONTEXT ( 'NONE', #128, 'mechanical' ) ;
#58 = SHAPE_DEFINITION_REPRESENTATION ( #121, #127 ) ;
#59 = DIRECTION ( 'NONE',  ( 1.000000000000000000, 0.0000000000000000000, 0.0000000000000000000 ) ) ;
#60 = DIRECTION ( 'NONE',  ( 0.0000000000000000000, 0.0000000000000000000, 1.000000000000000000 ) ) ;
#61 = CARTESIAN_POINT ( 'NONE',  ( 0.0000000000000000000, 0.0000000000000000000, 0.0000000000000000000 ) ) ;
#62 =( NAMED_UNIT ( * ) SI_UNIT ( $, .STERADIAN. ) SOLID_ANGLE_UNIT ( ) );
#63 =( NAMED_UNIT ( * ) PLANE_ANGLE_UNIT ( ) SI_UNIT ( $, .RADIAN. ) );
#64 =( CONVERSION_BASED_UNIT ( 'INCH', #21 ) LENGTH_UNIT ( ) NAMED_UNIT ( #146 ) );
#65 =( LENGTH_UNIT ( ) NAMED_UNIT ( * ) SI_UNIT ( $, .METRE. ) );
#66 = PRESENTATION_STYLE_ASSIGNMENT (( #67 ) ) ;
#67 = SURFACE_STYLE_USAGE ( .BOTH. , #68 ) ;
#68 = SURFACE_SIDE_STYLE ('',( #69 ) ) ;
#69 = SURFACE_STYLE_FILL_AREA ( #70 ) ;
#70 = FILL_AREA_STYLE ('',( #71 ) ) ;
#71 = FILL_AREA_STYLE_COLOUR ( '', #16 ) ;
#72 = APPLICATION_PROTOCOL_DEFINITION ( 'draft international standard', 'automotive_design', 1998, #128 ) ;
#73 =( NAMED_UNIT ( * ) SI_UNIT ( $, .STERADIAN. ) SOLID_ANGLE_UNIT ( ) );
#74 =( NAMED_UNIT ( * ) PLANE_ANGLE_UNIT ( ) SI_UNIT ( $, .RADIAN. ) );
#75 =( CONVERSION_BASED_UNIT ( 'INCH', #101 ) LENGTH_UNIT ( ) NAMED_UNIT ( #148 ) );
#76 =( LENGTH_UNIT ( ) NAMED_UNIT ( * ) SI_UNIT ( $, .METRE. ) );
#77 = LINE ( 'NONE', #53, #94 ) ;
#78 = DIRECTION ( 'NONE',  ( 0.0000000000000000000, 0.0000000000000000000, -1.000000000000000000 ) ) ;
#79 =( NAMED_UNIT ( * ) SI_UNIT ( $, .STERADIAN. ) SOLID_ANGLE_UNIT ( ) );
#80 = DIRECTION ( 'NONE',  ( -0.0000000000000000000, -1.000000000000000000, -0.0000000000000000000 ) ) ;
#81 = CARTESIAN_POINT ( 'NONE',  ( 0.0000000000000000000, 0.06250000000000000000, 0.0000000000000000000 ) ) ;
#82 = DIRECTION ( 'NONE',  ( 0.0000000000000000000, -0.0000000000000000000, 1.000000000000000000 ) ) ;
#83 = DIRECTION ( 'NONE',  ( 0.0000000000000000000, 1.000000000000000000, 0.0000000000000000000 ) ) ;
#84 = DIRECTION ( 'NONE',  ( 0.0000000000000000000, 0.0000000000000000000, -1.000000000000000000 ) ) ;
#85 = PLANE ( 'NONE',  #142 ) ;
#86 = CARTESIAN_POINT ( 'NONE',  ( 0.0000000000000000000, 0.06250000000000000000, 0.0000000000000000000 ) ) ;
#87 = DIRECTION ( 'NONE',  ( 0.0000000000000000000, -0.0000000000000000000, 1.000000000000000000 ) ) ;
#88 = CARTESIAN_POINT ( 'NONE',  ( 0.0000000000000000000, 0.06250000000000000000, 0.0000000000000000000 ) ) ;
#89 = DIRECTION ( 'NONE',  ( -0.0000000000000000000, -1.000000000000000000, -0.0000000000000000000 ) ) ;
#90 = DIRECTION ( 'NONE',  ( 0.0000000000000000000, 1.000000000000000000, 0.0000000000000000000 ) ) ;
#91 = PLANE ( 'NONE',  #139 ) ;
#92 = CARTESIAN_POINT ( 'NONE',  ( 0.0000000000000000000, 0.0000000000000000000, 0.0000000000000000000 ) ) ;
#93 = ORIENTED_EDGE ( 'NONE', *, *, #8, .F. ) ;
#94 = VECTOR ( 'NONE', #52, 39.37007874015748100 ) ;
#95 = VECTOR ( 'NONE', #42, 39.37007874015748100 ) ;
#96 = STYLED_ITEM ( 'NONE', ( #27 ), #122 ) ;
#97 = PRESENTATION_LAYER_ASSIGNMENT (  '', '', ( #96 ) ) ;
#98 = STYLED_ITEM ( 'NONE', ( #66 ), #127 ) ;
#99 = MECHANICAL_DESIGN_GEOMETRIC_PRESENTATION_REPRESENTATION (  '', ( #96 ), #143 ) ;
#100 = LENGTH_MEASURE_WITH_UNIT ( LENGTH_MEASURE( 0.02539999999999999900 ), #26 );
#101 = LENGTH_MEASURE_WITH_UNIT ( LENGTH_MEASURE( 0.02539999999999999900 ), #76 );
#102 = AXIS2_PLACEMENT_3D ( 'NONE', #45, #41, #40 ) ;
#103 = AXIS2_PLACEMENT_3D ( 'NONE', #48, #47, #46 ) ;
#104 = ORIENTED_EDGE ( 'NONE', *, *, #6, .F. ) ;
#105 = ORIENTED_EDGE ( 'NONE', *, *, #6, .T. ) ;
#106 = ORIENTED_EDGE ( 'NONE', *, *, #8, .T. ) ;
#107 = ORIENTED_EDGE ( 'NONE', *, *, #7, .F. ) ;
#108 = VERTEX_POINT ( 'NONE', #36 ) ;
#109 = VERTEX_POINT ( 'NONE', #35 ) ;
#110 = VERTEX_POINT ( 'NONE', #34 ) ;
#111 = VERTEX_POINT ( 'NONE', #33 ) ;
#112 = EDGE_LOOP ( 'NONE', ( #107, #105, #106, #117 ) ) ;
#113 = EDGE_LOOP ( 'NONE', ( #54, #93 ) ) ;
#114 = EDGE_LOOP ( 'NONE', ( #104, #119, #120, #118 ) ) ;
#115 = EDGE_LOOP ( 'NONE', ( #116, #55 ) ) ;
#116 = ORIENTED_EDGE ( 'NONE', *, *, #10, .T. ) ;
#117 = ORIENTED_EDGE ( 'NONE', *, *, #9, .F. ) ;
#118 = ORIENTED_EDGE ( 'NONE', *, *, #11, .T. ) ;
#119 = ORIENTED_EDGE ( 'NONE', *, *, #10, .F. ) ;
#120 = ORIENTED_EDGE ( 'NONE', *, *, #9, .T. ) ;
#121 = PRODUCT_DEFINITION_SHAPE ( 'NONE', 'NONE',  #15 ) ;
#122 = MANIFOLD_SOLID_BREP ( 'Boss-Extrude1', #138 ) ;
#123 = PRODUCT_DEFINITION_CONTEXT ( 'detailed design', #129, 'design' ) ;
#124 = UNCERTAINTY_MEASURE_WITH_UNIT (LENGTH_MEASURE( 1.000000000000000100E-005 ), #25, 'distance_accuracy_value', 'NONE');
#125 = UNCERTAINTY_MEASURE_WITH_UNIT (LENGTH_MEASURE( 1.000000000000000100E-005 ), #75, 'distance_accuracy_value', 'NONE');
#126 = UNCERTAINTY_MEASURE_WITH_UNIT (LENGTH_MEASURE( 1.000000000000000100E-005 ), #64, 'distance_accuracy_value', 'NONE');
#127 = ADVANCED_BREP_SHAPE_REPRESENTATION ( 'R063-063-DM', ( #122, #22 ), #144 ) ;
#128 = APPLICATION_CONTEXT ( 'automotive_design' ) ;
#129 = APPLICATION_CONTEXT ( 'automotive_design' ) ;
#130 = AXIS2_PLACEMENT_3D ( 'NONE', #51, #50, #49 ) ;
#131 = FACE_OUTER_BOUND ( 'NONE', #114, .T. ) ;
#132 = CYLINDRICAL_SURFACE ( 'NONE', #134, 0.03125000000000001400 ) ;
#133 = FACE_OUTER_BOUND ( 'NONE', #115, .T. ) ;
#134 = AXIS2_PLACEMENT_3D ( 'NONE', #88, #89, #84 ) ;
#135 = CYLINDRICAL_SURFACE ( 'NONE', #140, 0.03125000000000001400 ) ;
#136 = FACE_OUTER_BOUND ( 'NONE', #113, .T. ) ;
#137 = FACE_OUTER_BOUND ( 'NONE', #112, .T. ) ;
#138 = CLOSED_SHELL ( 'NONE', ( #3, #5, #4, #1 ) ) ;
#139 = AXIS2_PLACEMENT_3D ( 'NONE', #92, #90, #87 ) ;
#140 = AXIS2_PLACEMENT_3D ( 'NONE', #81, #80, #78 ) ;
#141 = AXIS2_PLACEMENT_3D ( 'NONE', #39, #38, #37 ) ;
#142 = AXIS2_PLACEMENT_3D ( 'NONE', #86, #83, #82 ) ;
#143 =( GEOMETRIC_REPRESENTATION_CONTEXT ( 3 ) GLOBAL_UNCERTAINTY_ASSIGNED_CONTEXT ( ( #124 ) ) GLOBAL_UNIT_ASSIGNED_CONTEXT ( ( #25, #24, #79 ) ) REPRESENTATION_CONTEXT ( 'NONE', 'WORKASPACE' ) );
#144 =( GEOMETRIC_REPRESENTATION_CONTEXT ( 3 ) GLOBAL_UNCERTAINTY_ASSIGNED_CONTEXT ( ( #125 ) ) GLOBAL_UNIT_ASSIGNED_CONTEXT ( ( #75, #74, #73 ) ) REPRESENTATION_CONTEXT ( 'NONE', 'WORKASPACE' ) );
#145 =( GEOMETRIC_REPRESENTATION_CONTEXT ( 3 ) GLOBAL_UNCERTAINTY_ASSIGNED_CONTEXT ( ( #126 ) ) GLOBAL_UNIT_ASSIGNED_CONTEXT ( ( #64, #63, #62 ) ) REPRESENTATION_CONTEXT ( 'NONE', 'WORKASPACE' ) );
#146 = DIMENSIONAL_EXPONENTS ( 1.000000000000000000, 0.0000000000000000000, 0.0000000000000000000, 0.0000000000000000000, 0.0000000000000000000, 0.0000000000000000000, 0.0000000000000000000 ) ;
#147 = DIMENSIONAL_EXPONENTS ( 1.000000000000000000, 0.0000000000000000000, 0.0000000000000000000, 0.0000000000000000000, 0.0000000000000000000, 0.0000000000000000000, 0.0000000000000000000 ) ;
#148 = DIMENSIONAL_EXPONENTS ( 1.000000000000000000, 0.0000000000000000000, 0.0000000000000000000, 0.0000000000000000000, 0.0000000000000000000, 0.0000000000000000000, 0.0000000000000000000 ) ;
#149 = PRODUCT ( 'R063-063-DM', 'R063-063-DM', '', ( #57 ) ) ;
ENDSEC;
END-ISO-10303-21;
