ISO-10303-21;
HEADER;
FILE_DESCRIPTION (( 'STEP AP214' ),
    '1' );
FILE_NAME ('R063-063.step',
    '2012-04-20T21:04:00',
    ( '' ),
    ( '' ),
    'SwSTEP 2.0',
    'SolidWorks 2012',
    '' );
FILE_SCHEMA (( 'AUTOMOTIVE_DESIGN' ));
ENDSEC;

DATA;
#1 = UNCERTAINTY_MEASURE_WITH_UNIT (LENGTH_MEASURE( 1.000000000000000100E-005 ), #64, 'distance_accuracy_value', 'NONE');
#2 = UNCERTAINTY_MEASURE_WITH_UNIT (LENGTH_MEASURE( 1.000000000000000100E-005 ), #45, 'distance_accuracy_value', 'NONE');
#3 = UNCERTAINTY_MEASURE_WITH_UNIT (LENGTH_MEASURE( 1.000000000000000100E-005 ), #56, 'distance_accuracy_value', 'NONE');
#4 = ADVANCED_BREP_SHAPE_REPRESENTATION ( 'R063-063', ( #133, #29 ), #25 ) ;
#5 = EDGE_CURVE ( 'NONE', #130, #127, #129, .T. ) ;
#6 = EDGE_CURVE ( 'NONE', #130, #124, #8, .T. ) ;
#7 = PRODUCT_RELATED_PRODUCT_CATEGORY ( 'part', '', ( #110 ) ) ;
#8 = CIRCLE ( 'NONE', #143, 0.03125000000000001400 ) ;
#9 = COLOUR_RGB ( '',0.5686274509803921400, 0.5686274509803921400, 0.5882352941176470800 ) ;
#10 = COLOUR_RGB ( '',0.5686274509803921400, 0.5686274509803921400, 0.5882352941176470800 ) ;
#11 = PRODUCT_DEFINITION ( 'UNKNOWN', '', #36, #135 ) ;
#12 = CIRCLE ( 'NONE', #31, 0.03125000000000001400 ) ;
#13 = CIRCLE ( 'NONE', #35, 0.03125000000000001400 ) ;
#14 = CIRCLE ( 'NONE', #142, 0.03125000000000001400 ) ;
#15 = ADVANCED_FACE ( 'NONE', ( #147 ), #146, .T. ) ;
#16 = ADVANCED_FACE ( 'NONE', ( #145 ), #149, .T. ) ;
#17 = ADVANCED_FACE ( 'NONE', ( #140 ), #96, .T. ) ;
#18 = ADVANCED_FACE ( 'NONE', ( #34 ), #93, .F. ) ;
#19 = EDGE_CURVE ( 'NONE', #124, #126, #87, .T. ) ;
#20 = EDGE_CURVE ( 'NONE', #126, #127, #14, .T. ) ;
#21 = EDGE_CURVE ( 'NONE', #124, #130, #13, .T. ) ;
#22 = EDGE_CURVE ( 'NONE', #127, #126, #12, .T. ) ;
#23 =( GEOMETRIC_REPRESENTATION_CONTEXT ( 3 ) GLOBAL_UNCERTAINTY_ASSIGNED_CONTEXT ( ( #2 ) ) GLOBAL_UNIT_ASSIGNED_CONTEXT ( ( #45, #44, #43 ) ) REPRESENTATION_CONTEXT ( 'NONE', 'WORKASPACE' ) );
#24 =( GEOMETRIC_REPRESENTATION_CONTEXT ( 3 ) GLOBAL_UNCERTAINTY_ASSIGNED_CONTEXT ( ( #1 ) ) GLOBAL_UNIT_ASSIGNED_CONTEXT ( ( #64, #63, #62 ) ) REPRESENTATION_CONTEXT ( 'NONE', 'WORKASPACE' ) );
#25 =( GEOMETRIC_REPRESENTATION_CONTEXT ( 3 ) GLOBAL_UNCERTAINTY_ASSIGNED_CONTEXT ( ( #3 ) ) GLOBAL_UNIT_ASSIGNED_CONTEXT ( ( #56, #55, #54 ) ) REPRESENTATION_CONTEXT ( 'NONE', 'WORKASPACE' ) );
#26 = PRESENTATION_LAYER_ASSIGNMENT (  '', '', ( #27 ) ) ;
#27 = STYLED_ITEM ( 'NONE', ( #47 ), #4 ) ;
#28 = VECTOR ( 'NONE', #89, 39.37007874015748100 ) ;
#29 = AXIS2_PLACEMENT_3D ( 'NONE', #60, #75, #77 ) ;
#30 = STYLED_ITEM ( 'NONE', ( #68 ), #133 ) ;
#31 = AXIS2_PLACEMENT_3D ( 'NONE', #78, #79, #80 ) ;
#32 = AXIS2_PLACEMENT_3D ( 'NONE', #95, #94, #92 ) ;
#33 = LENGTH_MEASURE_WITH_UNIT ( LENGTH_MEASURE( 0.02539999999999999900 ), #57 );
#34 = FACE_OUTER_BOUND ( 'NONE', #119, .T. ) ;
#35 = AXIS2_PLACEMENT_3D ( 'NONE', #81, #82, #83 ) ;
#36 = PRODUCT_DEFINITION_FORMATION_WITH_SPECIFIED_SOURCE ( 'ANY', '', #110, .NOT_KNOWN. ) ;
#37 = LENGTH_MEASURE_WITH_UNIT ( LENGTH_MEASURE( 0.02539999999999999900 ), #65 );
#38 = PRESENTATION_LAYER_ASSIGNMENT (  '', '', ( #30 ) ) ;
#39 = MECHANICAL_DESIGN_GEOMETRIC_PRESENTATION_REPRESENTATION (  '', ( #30 ), #24 ) ;
#40 = LENGTH_MEASURE_WITH_UNIT ( LENGTH_MEASURE( 0.02539999999999999900 ), #46 );
#41 = MECHANICAL_DESIGN_GEOMETRIC_PRESENTATION_REPRESENTATION (  '', ( #27 ), #23 ) ;
#42 = CARTESIAN_POINT ( 'NONE',  ( 0.0000000000000000000, 0.0000000000000000000, 0.0000000000000000000 ) ) ;
#43 =( NAMED_UNIT ( * ) SI_UNIT ( $, .STERADIAN. ) SOLID_ANGLE_UNIT ( ) );
#44 =( NAMED_UNIT ( * ) PLANE_ANGLE_UNIT ( ) SI_UNIT ( $, .RADIAN. ) );
#45 =( CONVERSION_BASED_UNIT ( 'INCH', #40 ) LENGTH_UNIT ( ) NAMED_UNIT ( #107 ) );
#46 =( LENGTH_UNIT ( ) NAMED_UNIT ( * ) SI_UNIT ( $, .METRE. ) );
#47 = PRESENTATION_STYLE_ASSIGNMENT (( #48 ) ) ;
#48 = SURFACE_STYLE_USAGE ( .BOTH. , #49 ) ;
#49 = SURFACE_SIDE_STYLE ('',( #50 ) ) ;
#50 = SURFACE_STYLE_FILL_AREA ( #51 ) ;
#51 = FILL_AREA_STYLE ('',( #52 ) ) ;
#52 = FILL_AREA_STYLE_COLOUR ( '', #9 ) ;
#53 = APPLICATION_PROTOCOL_DEFINITION ( 'draft international standard', 'automotive_design', 1998, #136 ) ;
#54 =( NAMED_UNIT ( * ) SI_UNIT ( $, .STERADIAN. ) SOLID_ANGLE_UNIT ( ) );
#55 =( NAMED_UNIT ( * ) PLANE_ANGLE_UNIT ( ) SI_UNIT ( $, .RADIAN. ) );
#56 =( CONVERSION_BASED_UNIT ( 'INCH', #33 ) LENGTH_UNIT ( ) NAMED_UNIT ( #109 ) );
#57 =( LENGTH_UNIT ( ) NAMED_UNIT ( * ) SI_UNIT ( $, .METRE. ) );
#58 = APPLICATION_PROTOCOL_DEFINITION ( 'draft international standard', 'automotive_design', 1998, #137 ) ;
#59 = PRODUCT_CONTEXT ( 'NONE', #136, 'mechanical' ) ;
#60 = CARTESIAN_POINT ( 'NONE',  ( 0.0000000000000000000, 0.0000000000000000000, 0.0000000000000000000 ) ) ;
#61 = SHAPE_DEFINITION_REPRESENTATION ( #134, #4 ) ;
#62 =( NAMED_UNIT ( * ) SI_UNIT ( $, .STERADIAN. ) SOLID_ANGLE_UNIT ( ) );
#63 =( NAMED_UNIT ( * ) PLANE_ANGLE_UNIT ( ) SI_UNIT ( $, .RADIAN. ) );
#64 =( CONVERSION_BASED_UNIT ( 'INCH', #37 ) LENGTH_UNIT ( ) NAMED_UNIT ( #108 ) );
#65 =( LENGTH_UNIT ( ) NAMED_UNIT ( * ) SI_UNIT ( $, .METRE. ) );
#66 = SURFACE_SIDE_STYLE ('',( #69 ) ) ;
#67 = SURFACE_STYLE_USAGE ( .BOTH. , #66 ) ;
#68 = PRESENTATION_STYLE_ASSIGNMENT (( #67 ) ) ;
#69 = SURFACE_STYLE_FILL_AREA ( #70 ) ;
#70 = FILL_AREA_STYLE ('',( #71 ) ) ;
#71 = FILL_AREA_STYLE_COLOUR ( '', #10 ) ;
#72 = CARTESIAN_POINT ( 'NONE',  ( 3.827021247335480300E-018, 0.06250000000000000000, 0.03125000000000001400 ) ) ;
#73 = CARTESIAN_POINT ( 'NONE',  ( 3.827021247335480300E-018, 0.0000000000000000000, 0.03125000000000001400 ) ) ;
#74 = CARTESIAN_POINT ( 'NONE',  ( 0.0000000000000000000, 0.0000000000000000000, -0.03125000000000001400 ) ) ;
#75 = DIRECTION ( 'NONE',  ( 0.0000000000000000000, 0.0000000000000000000, 1.000000000000000000 ) ) ;
#76 = CARTESIAN_POINT ( 'NONE',  ( 0.0000000000000000000, 0.06250000000000000000, -0.03125000000000001400 ) ) ;
#77 = DIRECTION ( 'NONE',  ( 1.000000000000000000, 0.0000000000000000000, 0.0000000000000000000 ) ) ;
#78 = CARTESIAN_POINT ( 'NONE',  ( 0.0000000000000000000, 0.0000000000000000000, 0.0000000000000000000 ) ) ;
#79 = DIRECTION ( 'NONE',  ( 0.0000000000000000000, 1.000000000000000000, 0.0000000000000000000 ) ) ;
#80 = DIRECTION ( 'NONE',  ( 0.0000000000000000000, 0.0000000000000000000, 1.000000000000000000 ) ) ;
#81 = CARTESIAN_POINT ( 'NONE',  ( 0.0000000000000000000, 0.06250000000000000000, 0.0000000000000000000 ) ) ;
#82 = DIRECTION ( 'NONE',  ( 0.0000000000000000000, 1.000000000000000000, 0.0000000000000000000 ) ) ;
#83 = DIRECTION ( 'NONE',  ( 0.0000000000000000000, 0.0000000000000000000, 1.000000000000000000 ) ) ;
#84 = CARTESIAN_POINT ( 'NONE',  ( 0.0000000000000000000, 0.0000000000000000000, 0.0000000000000000000 ) ) ;
#85 = DIRECTION ( 'NONE',  ( 0.0000000000000000000, 0.0000000000000000000, 1.000000000000000000 ) ) ;
#86 = DIRECTION ( 'NONE',  ( 0.0000000000000000000, 1.000000000000000000, 0.0000000000000000000 ) ) ;
#87 = LINE ( 'NONE', #88, #28 ) ;
#88 = CARTESIAN_POINT ( 'NONE',  ( 0.0000000000000000000, 0.06250000000000000000, -0.03125000000000001400 ) ) ;
#89 = DIRECTION ( 'NONE',  ( -0.0000000000000000000, -1.000000000000000000, -0.0000000000000000000 ) ) ;
#90 = DIRECTION ( 'NONE',  ( 0.0000000000000000000, -0.0000000000000000000, 1.000000000000000000 ) ) ;
#91 = DIRECTION ( 'NONE',  ( 0.0000000000000000000, 1.000000000000000000, 0.0000000000000000000 ) ) ;
#92 = DIRECTION ( 'NONE',  ( 0.0000000000000000000, -0.0000000000000000000, 1.000000000000000000 ) ) ;
#93 = PLANE ( 'NONE',  #138 ) ;
#94 = DIRECTION ( 'NONE',  ( 0.0000000000000000000, 1.000000000000000000, 0.0000000000000000000 ) ) ;
#95 = CARTESIAN_POINT ( 'NONE',  ( 0.0000000000000000000, 0.06250000000000000000, 0.0000000000000000000 ) ) ;
#96 = PLANE ( 'NONE',  #32 ) ;
#97 = DIRECTION ( 'NONE',  ( 0.0000000000000000000, 0.0000000000000000000, -1.000000000000000000 ) ) ;
#98 = DIRECTION ( 'NONE',  ( -0.0000000000000000000, -1.000000000000000000, -0.0000000000000000000 ) ) ;
#99 = CARTESIAN_POINT ( 'NONE',  ( 0.0000000000000000000, 0.06250000000000000000, 0.0000000000000000000 ) ) ;
#100 = DIRECTION ( 'NONE',  ( 0.0000000000000000000, 0.0000000000000000000, -1.000000000000000000 ) ) ;
#101 = DIRECTION ( 'NONE',  ( -0.0000000000000000000, -1.000000000000000000, -0.0000000000000000000 ) ) ;
#102 = CARTESIAN_POINT ( 'NONE',  ( 0.0000000000000000000, 0.06250000000000000000, 0.0000000000000000000 ) ) ;
#103 = DIRECTION ( 'NONE',  ( 0.0000000000000000000, 0.0000000000000000000, 1.000000000000000000 ) ) ;
#104 = DIRECTION ( 'NONE',  ( 0.0000000000000000000, 1.000000000000000000, 0.0000000000000000000 ) ) ;
#105 = DIRECTION ( 'NONE',  ( -0.0000000000000000000, -1.000000000000000000, -0.0000000000000000000 ) ) ;
#106 = CARTESIAN_POINT ( 'NONE',  ( 0.0000000000000000000, 0.06250000000000000000, 0.0000000000000000000 ) ) ;
#107 = DIMENSIONAL_EXPONENTS ( 1.000000000000000000, 0.0000000000000000000, 0.0000000000000000000, 0.0000000000000000000, 0.0000000000000000000, 0.0000000000000000000, 0.0000000000000000000 ) ;
#108 = DIMENSIONAL_EXPONENTS ( 1.000000000000000000, 0.0000000000000000000, 0.0000000000000000000, 0.0000000000000000000, 0.0000000000000000000, 0.0000000000000000000, 0.0000000000000000000 ) ;
#109 = DIMENSIONAL_EXPONENTS ( 1.000000000000000000, 0.0000000000000000000, 0.0000000000000000000, 0.0000000000000000000, 0.0000000000000000000, 0.0000000000000000000, 0.0000000000000000000 ) ;
#110 = PRODUCT ( 'R063-063', 'R063-063', '', ( #59 ) ) ;
#111 = ORIENTED_EDGE ( 'NONE', *, *, #6, .T. ) ;
#112 = ORIENTED_EDGE ( 'NONE', *, *, #21, .T. ) ;
#113 = ORIENTED_EDGE ( 'NONE', *, *, #22, .F. ) ;
#114 = ORIENTED_EDGE ( 'NONE', *, *, #19, .F. ) ;
#115 = ORIENTED_EDGE ( 'NONE', *, *, #5, .F. ) ;
#116 = ORIENTED_EDGE ( 'NONE', *, *, #6, .F. ) ;
#117 = EDGE_LOOP ( 'NONE', ( #115, #123, #131, #132 ) ) ;
#118 = EDGE_LOOP ( 'NONE', ( #112, #111 ) ) ;
#119 = EDGE_LOOP ( 'NONE', ( #122, #113 ) ) ;
#120 = EDGE_LOOP ( 'NONE', ( #116, #125, #121, #114 ) ) ;
#121 = ORIENTED_EDGE ( 'NONE', *, *, #22, .T. ) ;
#122 = ORIENTED_EDGE ( 'NONE', *, *, #20, .F. ) ;
#123 = ORIENTED_EDGE ( 'NONE', *, *, #21, .F. ) ;
#124 = VERTEX_POINT ( 'NONE', #76 ) ;
#125 = ORIENTED_EDGE ( 'NONE', *, *, #5, .T. ) ;
#126 = VERTEX_POINT ( 'NONE', #74 ) ;
#127 = VERTEX_POINT ( 'NONE', #73 ) ;
#128 = CARTESIAN_POINT ( 'NONE',  ( 3.827021247335480300E-018, 0.06250000000000000000, 0.03125000000000001400 ) ) ;
#129 = LINE ( 'NONE', #128, #144 ) ;
#130 = VERTEX_POINT ( 'NONE', #72 ) ;
#131 = ORIENTED_EDGE ( 'NONE', *, *, #19, .T. ) ;
#132 = ORIENTED_EDGE ( 'NONE', *, *, #20, .T. ) ;
#133 = MANIFOLD_SOLID_BREP ( 'Boss-Extrude1', #139 ) ;
#134 = PRODUCT_DEFINITION_SHAPE ( 'NONE', 'NONE',  #11 ) ;
#135 = PRODUCT_DEFINITION_CONTEXT ( 'detailed design', #137, 'design' ) ;
#136 = APPLICATION_CONTEXT ( 'automotive_design' ) ;
#137 = APPLICATION_CONTEXT ( 'automotive_design' ) ;
#138 = AXIS2_PLACEMENT_3D ( 'NONE', #42, #91, #90 ) ;
#139 = CLOSED_SHELL ( 'NONE', ( #15, #16, #17, #18 ) ) ;
#140 = FACE_OUTER_BOUND ( 'NONE', #118, .T. ) ;
#141 = AXIS2_PLACEMENT_3D ( 'NONE', #102, #101, #100 ) ;
#142 = AXIS2_PLACEMENT_3D ( 'NONE', #84, #86, #85 ) ;
#143 = AXIS2_PLACEMENT_3D ( 'NONE', #106, #104, #103 ) ;
#144 = VECTOR ( 'NONE', #105, 39.37007874015748100 ) ;
#145 = FACE_OUTER_BOUND ( 'NONE', #117, .T. ) ;
#146 = CYLINDRICAL_SURFACE ( 'NONE', #141, 0.03125000000000001400 ) ;
#147 = FACE_OUTER_BOUND ( 'NONE', #120, .T. ) ;
#148 = AXIS2_PLACEMENT_3D ( 'NONE', #99, #98, #97 ) ;
#149 = CYLINDRICAL_SURFACE ( 'NONE', #148, 0.03125000000000001400 ) ;
ENDSEC;
END-ISO-10303-21;
