ISO-10303-21;
HEADER;
FILE_DESCRIPTION (( 'STEP AP214' ),
    '1' );
FILE_NAME ('R094-094.step',
    '2012-04-20T21:04:02',
    ( '' ),
    ( '' ),
    'SwSTEP 2.0',
    'SolidWorks 2012',
    '' );
FILE_SCHEMA (( 'AUTOMOTIVE_DESIGN' ));
ENDSEC;

DATA;
#1 = UNCERTAINTY_MEASURE_WITH_UNIT (LENGTH_MEASURE( 1.000000000000000100E-005 ), #109, 'distance_accuracy_value', 'NONE');
#2 = UNCERTAINTY_MEASURE_WITH_UNIT (LENGTH_MEASURE( 1.000000000000000100E-005 ), #123, 'distance_accuracy_value', 'NONE');
#3 = UNCERTAINTY_MEASURE_WITH_UNIT (LENGTH_MEASURE( 1.000000000000000100E-005 ), #113, 'distance_accuracy_value', 'NONE');
#4 = ADVANCED_BREP_SHAPE_REPRESENTATION ( 'R094-094', ( #51, #23 ), #148 ) ;
#5 = COLOUR_RGB ( '',0.5686274509803921400, 0.5686274509803921400, 0.5882352941176470800 ) ;
#6 = COLOUR_RGB ( '',0.5686274509803921400, 0.5686274509803921400, 0.5882352941176470800 ) ;
#7 = PRODUCT_DEFINITION ( 'UNKNOWN', '', #26, #50 ) ;
#8 = CIRCLE ( 'NONE', #139, 0.04687500000000000700 ) ;
#9 = ADVANCED_FACE ( 'NONE', ( #143 ), #62, .T. ) ;
#10 = CIRCLE ( 'NONE', #140, 0.04687500000000000700 ) ;
#11 = CIRCLE ( 'NONE', #141, 0.04687500000000000700 ) ;
#12 = CIRCLE ( 'NONE', #146, 0.04687500000000000700 ) ;
#13 = EDGE_CURVE ( 'NONE', #46, #45, #12, .T. ) ;
#14 = EDGE_CURVE ( 'NONE', #46, #44, #74, .T. ) ;
#15 = EDGE_CURVE ( 'NONE', #44, #43, #8, .T. ) ;
#16 = EDGE_CURVE ( 'NONE', #45, #46, #11, .T. ) ;
#17 = EDGE_CURVE ( 'NONE', #43, #44, #10, .T. ) ;
#18 = EDGE_CURVE ( 'NONE', #45, #43, #86, .T. ) ;
#19 = ADVANCED_FACE ( 'NONE', ( #136 ), #31, .T. ) ;
#20 = ADVANCED_FACE ( 'NONE', ( #138 ), #29, .T. ) ;
#21 = ADVANCED_FACE ( 'NONE', ( #135 ), #94, .F. ) ;
#22 = PRODUCT_RELATED_PRODUCT_CATEGORY ( 'part', '', ( #73 ) ) ;
#23 = AXIS2_PLACEMENT_3D ( 'NONE', #126, #127, #128 ) ;
#24 = LENGTH_MEASURE_WITH_UNIT ( LENGTH_MEASURE( 0.02539999999999999900 ), #122 );
#25 = PRESENTATION_LAYER_ASSIGNMENT (  '', '', ( #28 ) ) ;
#26 = PRODUCT_DEFINITION_FORMATION_WITH_SPECIFIED_SOURCE ( 'ANY', '', #73, .NOT_KNOWN. ) ;
#27 = MECHANICAL_DESIGN_GEOMETRIC_PRESENTATION_REPRESENTATION (  '', ( #28 ), #149 ) ;
#28 = STYLED_ITEM ( 'NONE', ( #121 ), #4 ) ;
#29 = CYLINDRICAL_SURFACE ( 'NONE', #35, 0.04687500000000000700 ) ;
#30 = LENGTH_MEASURE_WITH_UNIT ( LENGTH_MEASURE( 0.02539999999999999900 ), #112 );
#31 = CYLINDRICAL_SURFACE ( 'NONE', #36, 0.04687500000000000700 ) ;
#32 = LENGTH_MEASURE_WITH_UNIT ( LENGTH_MEASURE( 0.02539999999999999900 ), #108 );
#33 = MECHANICAL_DESIGN_GEOMETRIC_PRESENTATION_REPRESENTATION (  '', ( #37 ), #147 ) ;
#34 = AXIS2_PLACEMENT_3D ( 'NONE', #95, #96, #97 ) ;
#35 = AXIS2_PLACEMENT_3D ( 'NONE', #91, #92, #93 ) ;
#36 = AXIS2_PLACEMENT_3D ( 'NONE', #85, #89, #90 ) ;
#37 = STYLED_ITEM ( 'NONE', ( #107 ), #51 ) ;
#38 = PRESENTATION_LAYER_ASSIGNMENT (  '', '', ( #37 ) ) ;
#39 = EDGE_LOOP ( 'NONE', ( #47, #59, #55, #60 ) ) ;
#40 = EDGE_LOOP ( 'NONE', ( #61, #48, #49, #53 ) ) ;
#41 = EDGE_LOOP ( 'NONE', ( #56, #57 ) ) ;
#42 = EDGE_LOOP ( 'NONE', ( #54, #58 ) ) ;
#43 = VERTEX_POINT ( 'NONE', #98 ) ;
#44 = VERTEX_POINT ( 'NONE', #99 ) ;
#45 = VERTEX_POINT ( 'NONE', #100 ) ;
#46 = VERTEX_POINT ( 'NONE', #101 ) ;
#47 = ORIENTED_EDGE ( 'NONE', *, *, #18, .F. ) ;
#48 = ORIENTED_EDGE ( 'NONE', *, *, #18, .T. ) ;
#49 = ORIENTED_EDGE ( 'NONE', *, *, #17, .T. ) ;
#50 = PRODUCT_DEFINITION_CONTEXT ( 'detailed design', #134, 'design' ) ;
#51 = MANIFOLD_SOLID_BREP ( 'Boss-Extrude1', #144 ) ;
#52 = PRODUCT_DEFINITION_SHAPE ( 'NONE', 'NONE',  #7 ) ;
#53 = ORIENTED_EDGE ( 'NONE', *, *, #14, .F. ) ;
#54 = ORIENTED_EDGE ( 'NONE', *, *, #15, .F. ) ;
#55 = ORIENTED_EDGE ( 'NONE', *, *, #14, .T. ) ;
#56 = ORIENTED_EDGE ( 'NONE', *, *, #13, .T. ) ;
#57 = ORIENTED_EDGE ( 'NONE', *, *, #16, .T. ) ;
#58 = ORIENTED_EDGE ( 'NONE', *, *, #17, .F. ) ;
#59 = ORIENTED_EDGE ( 'NONE', *, *, #13, .F. ) ;
#60 = ORIENTED_EDGE ( 'NONE', *, *, #15, .T. ) ;
#61 = ORIENTED_EDGE ( 'NONE', *, *, #16, .F. ) ;
#62 = PLANE ( 'NONE',  #145 ) ;
#63 = CARTESIAN_POINT ( 'NONE',  ( 0.0000000000000000000, 0.09375000000000001400, 0.0000000000000000000 ) ) ;
#64 = DIRECTION ( 'NONE',  ( 0.0000000000000000000, 1.000000000000000000, 0.0000000000000000000 ) ) ;
#65 = DIRECTION ( 'NONE',  ( 0.0000000000000000000, -0.0000000000000000000, 1.000000000000000000 ) ) ;
#66 = CARTESIAN_POINT ( 'NONE',  ( 0.0000000000000000000, 0.09375000000000001400, 0.0000000000000000000 ) ) ;
#67 = DIRECTION ( 'NONE',  ( 0.0000000000000000000, 1.000000000000000000, 0.0000000000000000000 ) ) ;
#68 = DIRECTION ( 'NONE',  ( 0.0000000000000000000, 0.0000000000000000000, 1.000000000000000000 ) ) ;
#69 = CARTESIAN_POINT ( 'NONE',  ( 0.0000000000000000000, 0.0000000000000000000, 0.0000000000000000000 ) ) ;
#70 = DIMENSIONAL_EXPONENTS ( 1.000000000000000000, 0.0000000000000000000, 0.0000000000000000000, 0.0000000000000000000, 0.0000000000000000000, 0.0000000000000000000, 0.0000000000000000000 ) ;
#71 = DIMENSIONAL_EXPONENTS ( 1.000000000000000000, 0.0000000000000000000, 0.0000000000000000000, 0.0000000000000000000, 0.0000000000000000000, 0.0000000000000000000, 0.0000000000000000000 ) ;
#72 = DIMENSIONAL_EXPONENTS ( 1.000000000000000000, 0.0000000000000000000, 0.0000000000000000000, 0.0000000000000000000, 0.0000000000000000000, 0.0000000000000000000, 0.0000000000000000000 ) ;
#73 = PRODUCT ( 'R094-094', 'R094-094', '', ( #131 ) ) ;
#74 = LINE ( 'NONE', #75, #137 ) ;
#75 = CARTESIAN_POINT ( 'NONE',  ( 0.0000000000000000000, 0.09375000000000001400, -0.04687500000000000700 ) ) ;
#76 = DIRECTION ( 'NONE',  ( -0.0000000000000000000, -1.000000000000000000, -0.0000000000000000000 ) ) ;
#77 = DIRECTION ( 'NONE',  ( 0.0000000000000000000, 1.000000000000000000, 0.0000000000000000000 ) ) ;
#78 = DIRECTION ( 'NONE',  ( 0.0000000000000000000, 0.0000000000000000000, 1.000000000000000000 ) ) ;
#79 = CARTESIAN_POINT ( 'NONE',  ( 0.0000000000000000000, 0.09375000000000001400, 0.0000000000000000000 ) ) ;
#80 = DIRECTION ( 'NONE',  ( 0.0000000000000000000, 1.000000000000000000, 0.0000000000000000000 ) ) ;
#81 = DIRECTION ( 'NONE',  ( 0.0000000000000000000, 0.0000000000000000000, 1.000000000000000000 ) ) ;
#82 = CARTESIAN_POINT ( 'NONE',  ( 0.0000000000000000000, 0.0000000000000000000, 0.0000000000000000000 ) ) ;
#83 = DIRECTION ( 'NONE',  ( 0.0000000000000000000, 1.000000000000000000, 0.0000000000000000000 ) ) ;
#84 = DIRECTION ( 'NONE',  ( 0.0000000000000000000, 0.0000000000000000000, 1.000000000000000000 ) ) ;
#85 = CARTESIAN_POINT ( 'NONE',  ( 0.0000000000000000000, 0.09375000000000001400, 0.0000000000000000000 ) ) ;
#86 = LINE ( 'NONE', #87, #142 ) ;
#87 = CARTESIAN_POINT ( 'NONE',  ( 5.740531871003217000E-018, 0.09375000000000001400, 0.04687500000000000700 ) ) ;
#88 = DIRECTION ( 'NONE',  ( -0.0000000000000000000, -1.000000000000000000, -0.0000000000000000000 ) ) ;
#89 = DIRECTION ( 'NONE',  ( -0.0000000000000000000, -1.000000000000000000, -0.0000000000000000000 ) ) ;
#90 = DIRECTION ( 'NONE',  ( 0.0000000000000000000, 0.0000000000000000000, -1.000000000000000000 ) ) ;
#91 = CARTESIAN_POINT ( 'NONE',  ( 0.0000000000000000000, 0.09375000000000001400, 0.0000000000000000000 ) ) ;
#92 = DIRECTION ( 'NONE',  ( -0.0000000000000000000, -1.000000000000000000, -0.0000000000000000000 ) ) ;
#93 = DIRECTION ( 'NONE',  ( 0.0000000000000000000, 0.0000000000000000000, -1.000000000000000000 ) ) ;
#94 = PLANE ( 'NONE',  #34 ) ;
#95 = CARTESIAN_POINT ( 'NONE',  ( 0.0000000000000000000, 0.0000000000000000000, 0.0000000000000000000 ) ) ;
#96 = DIRECTION ( 'NONE',  ( 0.0000000000000000000, 1.000000000000000000, 0.0000000000000000000 ) ) ;
#97 = DIRECTION ( 'NONE',  ( 0.0000000000000000000, -0.0000000000000000000, 1.000000000000000000 ) ) ;
#98 = CARTESIAN_POINT ( 'NONE',  ( 5.740531871003217000E-018, 0.0000000000000000000, 0.04687500000000000700 ) ) ;
#99 = CARTESIAN_POINT ( 'NONE',  ( 0.0000000000000000000, 0.0000000000000000000, -0.04687500000000000700 ) ) ;
#100 = CARTESIAN_POINT ( 'NONE',  ( 5.740531871003217000E-018, 0.09375000000000001400, 0.04687500000000000700 ) ) ;
#101 = CARTESIAN_POINT ( 'NONE',  ( 0.0000000000000000000, 0.09375000000000001400, -0.04687500000000000700 ) ) ;
#102 = FILL_AREA_STYLE_COLOUR ( '', #6 ) ;
#103 = FILL_AREA_STYLE ('',( #102 ) ) ;
#104 = SURFACE_STYLE_FILL_AREA ( #103 ) ;
#105 = SURFACE_SIDE_STYLE ('',( #104 ) ) ;
#106 = SURFACE_STYLE_USAGE ( .BOTH. , #105 ) ;
#107 = PRESENTATION_STYLE_ASSIGNMENT (( #106 ) ) ;
#108 =( LENGTH_UNIT ( ) NAMED_UNIT ( * ) SI_UNIT ( $, .METRE. ) );
#109 =( CONVERSION_BASED_UNIT ( 'INCH', #32 ) LENGTH_UNIT ( ) NAMED_UNIT ( #70 ) );
#110 =( NAMED_UNIT ( * ) PLANE_ANGLE_UNIT ( ) SI_UNIT ( $, .RADIAN. ) );
#111 =( NAMED_UNIT ( * ) SI_UNIT ( $, .STERADIAN. ) SOLID_ANGLE_UNIT ( ) );
#112 =( LENGTH_UNIT ( ) NAMED_UNIT ( * ) SI_UNIT ( $, .METRE. ) );
#113 =( CONVERSION_BASED_UNIT ( 'INCH', #30 ) LENGTH_UNIT ( ) NAMED_UNIT ( #71 ) );
#114 =( NAMED_UNIT ( * ) PLANE_ANGLE_UNIT ( ) SI_UNIT ( $, .RADIAN. ) );
#115 =( NAMED_UNIT ( * ) SI_UNIT ( $, .STERADIAN. ) SOLID_ANGLE_UNIT ( ) );
#116 = FILL_AREA_STYLE_COLOUR ( '', #5 ) ;
#117 = FILL_AREA_STYLE ('',( #116 ) ) ;
#118 = SURFACE_STYLE_FILL_AREA ( #117 ) ;
#119 = SURFACE_SIDE_STYLE ('',( #118 ) ) ;
#120 = SURFACE_STYLE_USAGE ( .BOTH. , #119 ) ;
#121 = PRESENTATION_STYLE_ASSIGNMENT (( #120 ) ) ;
#122 =( LENGTH_UNIT ( ) NAMED_UNIT ( * ) SI_UNIT ( $, .METRE. ) );
#123 =( CONVERSION_BASED_UNIT ( 'INCH', #24 ) LENGTH_UNIT ( ) NAMED_UNIT ( #72 ) );
#124 =( NAMED_UNIT ( * ) PLANE_ANGLE_UNIT ( ) SI_UNIT ( $, .RADIAN. ) );
#125 =( NAMED_UNIT ( * ) SI_UNIT ( $, .STERADIAN. ) SOLID_ANGLE_UNIT ( ) );
#126 = CARTESIAN_POINT ( 'NONE',  ( 0.0000000000000000000, 0.0000000000000000000, 0.0000000000000000000 ) ) ;
#127 = DIRECTION ( 'NONE',  ( 0.0000000000000000000, 0.0000000000000000000, 1.000000000000000000 ) ) ;
#128 = DIRECTION ( 'NONE',  ( 1.000000000000000000, 0.0000000000000000000, 0.0000000000000000000 ) ) ;
#129 = SHAPE_DEFINITION_REPRESENTATION ( #52, #4 ) ;
#130 = APPLICATION_PROTOCOL_DEFINITION ( 'draft international standard', 'automotive_design', 1998, #133 ) ;
#131 = PRODUCT_CONTEXT ( 'NONE', #133, 'mechanical' ) ;
#132 = APPLICATION_PROTOCOL_DEFINITION ( 'draft international standard', 'automotive_design', 1998, #134 ) ;
#133 = APPLICATION_CONTEXT ( 'automotive_design' ) ;
#134 = APPLICATION_CONTEXT ( 'automotive_design' ) ;
#135 = FACE_OUTER_BOUND ( 'NONE', #42, .T. ) ;
#136 = FACE_OUTER_BOUND ( 'NONE', #40, .T. ) ;
#137 = VECTOR ( 'NONE', #76, 39.37007874015748100 ) ;
#138 = FACE_OUTER_BOUND ( 'NONE', #39, .T. ) ;
#139 = AXIS2_PLACEMENT_3D ( 'NONE', #69, #77, #78 ) ;
#140 = AXIS2_PLACEMENT_3D ( 'NONE', #82, #83, #84 ) ;
#141 = AXIS2_PLACEMENT_3D ( 'NONE', #79, #80, #81 ) ;
#142 = VECTOR ( 'NONE', #88, 39.37007874015748100 ) ;
#143 = FACE_OUTER_BOUND ( 'NONE', #41, .T. ) ;
#144 = CLOSED_SHELL ( 'NONE', ( #19, #20, #9, #21 ) ) ;
#145 = AXIS2_PLACEMENT_3D ( 'NONE', #63, #64, #65 ) ;
#146 = AXIS2_PLACEMENT_3D ( 'NONE', #66, #67, #68 ) ;
#147 =( GEOMETRIC_REPRESENTATION_CONTEXT ( 3 ) GLOBAL_UNCERTAINTY_ASSIGNED_CONTEXT ( ( #1 ) ) GLOBAL_UNIT_ASSIGNED_CONTEXT ( ( #109, #110, #111 ) ) REPRESENTATION_CONTEXT ( 'NONE', 'WORKASPACE' ) );
#148 =( GEOMETRIC_REPRESENTATION_CONTEXT ( 3 ) GLOBAL_UNCERTAINTY_ASSIGNED_CONTEXT ( ( #3 ) ) GLOBAL_UNIT_ASSIGNED_CONTEXT ( ( #113, #114, #115 ) ) REPRESENTATION_CONTEXT ( 'NONE', 'WORKASPACE' ) );
#149 =( GEOMETRIC_REPRESENTATION_CONTEXT ( 3 ) GLOBAL_UNCERTAINTY_ASSIGNED_CONTEXT ( ( #2 ) ) GLOBAL_UNIT_ASSIGNED_CONTEXT ( ( #123, #124, #125 ) ) REPRESENTATION_CONTEXT ( 'NONE', 'WORKASPACE' ) );
ENDSEC;
END-ISO-10303-21;
