ISO-10303-21;
HEADER;
FILE_DESCRIPTION (( 'STEP AP214' ),
    '1' );
FILE_NAME ('R1000B.step',
    '2012-04-20T21:04:07',
    ( '' ),
    ( '' ),
    'SwSTEP 2.0',
    'SolidWorks 2012',
    '' );
FILE_SCHEMA (( 'AUTOMOTIVE_DESIGN' ));
ENDSEC;

DATA;
#1 = UNCERTAINTY_MEASURE_WITH_UNIT (LENGTH_MEASURE( 1.000000000000000100E-005 ), #72, 'distance_accuracy_value', 'NONE');
#2 = UNCERTAINTY_MEASURE_WITH_UNIT (LENGTH_MEASURE( 1.000000000000000100E-005 ), #62, 'distance_accuracy_value', 'NONE');
#3 = UNCERTAINTY_MEASURE_WITH_UNIT (LENGTH_MEASURE( 1.000000000000000100E-005 ), #90, 'distance_accuracy_value', 'NONE');
#4 = ADVANCED_BREP_SHAPE_REPRESENTATION ( 'R1000B', ( #46, #32 ), #148 ) ;
#5 = PRODUCT_RELATED_PRODUCT_CATEGORY ( 'part', '', ( #26 ) ) ;
#6 = CIRCLE ( 'NONE', #144, 0.1250000000000000000 ) ;
#7 = COLOUR_RGB ( '',0.5686274509803921400, 0.5686274509803921400, 0.5882352941176470800 ) ;
#8 = PRODUCT_DEFINITION ( 'UNKNOWN', '', #37, #45 ) ;
#9 = ADVANCED_FACE ( 'NONE', ( #137 ), #109, .T. ) ;
#10 = COLOUR_RGB ( '',0.5686274509803921400, 0.5686274509803921400, 0.5882352941176470800 ) ;
#11 = CIRCLE ( 'NONE', #145, 0.1250000000000000000 ) ;
#12 = CIRCLE ( 'NONE', #136, 0.1250000000000000000 ) ;
#13 = CIRCLE ( 'NONE', #142, 0.1250000000000000000 ) ;
#14 = EDGE_CURVE ( 'NONE', #54, #51, #13, .T. ) ;
#15 = EDGE_CURVE ( 'NONE', #52, #51, #117, .T. ) ;
#16 = EDGE_CURVE ( 'NONE', #53, #54, #120, .T. ) ;
#17 = EDGE_CURVE ( 'NONE', #51, #54, #6, .T. ) ;
#18 = EDGE_CURVE ( 'NONE', #52, #53, #12, .T. ) ;
#19 = EDGE_CURVE ( 'NONE', #53, #52, #11, .T. ) ;
#20 = ADVANCED_FACE ( 'NONE', ( #146 ), #35, .T. ) ;
#21 = ADVANCED_FACE ( 'NONE', ( #138 ), #30, .T. ) ;
#22 = ADVANCED_FACE ( 'NONE', ( #39 ), #79, .F. ) ;
#23 = DIMENSIONAL_EXPONENTS ( 1.000000000000000000, 0.0000000000000000000, 0.0000000000000000000, 0.0000000000000000000, 0.0000000000000000000, 0.0000000000000000000, 0.0000000000000000000 ) ;
#24 = DIMENSIONAL_EXPONENTS ( 1.000000000000000000, 0.0000000000000000000, 0.0000000000000000000, 0.0000000000000000000, 0.0000000000000000000, 0.0000000000000000000, 0.0000000000000000000 ) ;
#25 = DIMENSIONAL_EXPONENTS ( 1.000000000000000000, 0.0000000000000000000, 0.0000000000000000000, 0.0000000000000000000, 0.0000000000000000000, 0.0000000000000000000, 0.0000000000000000000 ) ;
#26 = PRODUCT ( 'R1000B', 'R1000B', '', ( #60 ) ) ;
#27 = LENGTH_MEASURE_WITH_UNIT ( LENGTH_MEASURE( 0.02539999999999999900 ), #71 );
#28 = AXIS2_PLACEMENT_3D ( 'NONE', #131, #132, #133 ) ;
#29 = LENGTH_MEASURE_WITH_UNIT ( LENGTH_MEASURE( 0.02539999999999999900 ), #89 );
#30 = CYLINDRICAL_SURFACE ( 'NONE', #43, 0.1250000000000000000 ) ;
#31 = STYLED_ITEM ( 'NONE', ( #88 ), #46 ) ;
#32 = AXIS2_PLACEMENT_3D ( 'NONE', #75, #56, #57 ) ;
#33 = MECHANICAL_DESIGN_GEOMETRIC_PRESENTATION_REPRESENTATION (  '', ( #42 ), #147 ) ;
#34 = LENGTH_MEASURE_WITH_UNIT ( LENGTH_MEASURE( 0.02539999999999999900 ), #97 );
#35 = CYLINDRICAL_SURFACE ( 'NONE', #28, 0.1250000000000000000 ) ;
#36 = PRESENTATION_LAYER_ASSIGNMENT (  '', '', ( #42 ) ) ;
#37 = PRODUCT_DEFINITION_FORMATION_WITH_SPECIFIED_SOURCE ( 'ANY', '', #26, .NOT_KNOWN. ) ;
#38 = PRESENTATION_LAYER_ASSIGNMENT (  '', '', ( #31 ) ) ;
#39 = FACE_OUTER_BOUND ( 'NONE', #50, .T. ) ;
#40 = MECHANICAL_DESIGN_GEOMETRIC_PRESENTATION_REPRESENTATION (  '', ( #31 ), #149 ) ;
#41 = AXIS2_PLACEMENT_3D ( 'NONE', #80, #81, #82 ) ;
#42 = STYLED_ITEM ( 'NONE', ( #70 ), #4 ) ;
#43 = AXIS2_PLACEMENT_3D ( 'NONE', #76, #77, #78 ) ;
#44 = PRODUCT_DEFINITION_SHAPE ( 'NONE', 'NONE',  #8 ) ;
#45 = PRODUCT_DEFINITION_CONTEXT ( 'detailed design', #135, 'design' ) ;
#46 = MANIFOLD_SOLID_BREP ( 'Boss-Extrude1', #139 ) ;
#47 = EDGE_LOOP ( 'NONE', ( #108, #103, #104, #100 ) ) ;
#48 = EDGE_LOOP ( 'NONE', ( #99, #105, #106, #107 ) ) ;
#49 = EDGE_LOOP ( 'NONE', ( #101, #55 ) ) ;
#50 = EDGE_LOOP ( 'NONE', ( #98, #102 ) ) ;
#51 = VERTEX_POINT ( 'NONE', #93 ) ;
#52 = VERTEX_POINT ( 'NONE', #94 ) ;
#53 = VERTEX_POINT ( 'NONE', #95 ) ;
#54 = VERTEX_POINT ( 'NONE', #96 ) ;
#55 = ORIENTED_EDGE ( 'NONE', *, *, #19, .T. ) ;
#56 = DIRECTION ( 'NONE',  ( 0.0000000000000000000, 0.0000000000000000000, 1.000000000000000000 ) ) ;
#57 = DIRECTION ( 'NONE',  ( 1.000000000000000000, 0.0000000000000000000, 0.0000000000000000000 ) ) ;
#58 = SHAPE_DEFINITION_REPRESENTATION ( #44, #4 ) ;
#59 = APPLICATION_PROTOCOL_DEFINITION ( 'draft international standard', 'automotive_design', 1998, #134 ) ;
#60 = PRODUCT_CONTEXT ( 'NONE', #134, 'mechanical' ) ;
#61 = APPLICATION_PROTOCOL_DEFINITION ( 'draft international standard', 'automotive_design', 1998, #135 ) ;
#62 =( CONVERSION_BASED_UNIT ( 'INCH', #34 ) LENGTH_UNIT ( ) NAMED_UNIT ( #23 ) );
#63 =( NAMED_UNIT ( * ) PLANE_ANGLE_UNIT ( ) SI_UNIT ( $, .RADIAN. ) );
#64 =( NAMED_UNIT ( * ) SI_UNIT ( $, .STERADIAN. ) SOLID_ANGLE_UNIT ( ) );
#65 = FILL_AREA_STYLE_COLOUR ( '', #7 ) ;
#66 = FILL_AREA_STYLE ('',( #65 ) ) ;
#67 = SURFACE_STYLE_FILL_AREA ( #66 ) ;
#68 = SURFACE_SIDE_STYLE ('',( #67 ) ) ;
#69 = SURFACE_STYLE_USAGE ( .BOTH. , #68 ) ;
#70 = PRESENTATION_STYLE_ASSIGNMENT (( #69 ) ) ;
#71 =( LENGTH_UNIT ( ) NAMED_UNIT ( * ) SI_UNIT ( $, .METRE. ) );
#72 =( CONVERSION_BASED_UNIT ( 'INCH', #27 ) LENGTH_UNIT ( ) NAMED_UNIT ( #25 ) );
#73 =( NAMED_UNIT ( * ) PLANE_ANGLE_UNIT ( ) SI_UNIT ( $, .RADIAN. ) );
#74 =( NAMED_UNIT ( * ) SI_UNIT ( $, .STERADIAN. ) SOLID_ANGLE_UNIT ( ) );
#75 = CARTESIAN_POINT ( 'NONE',  ( 0.0000000000000000000, 0.0000000000000000000, 0.0000000000000000000 ) ) ;
#76 = CARTESIAN_POINT ( 'NONE',  ( 0.0000000000000000000, 1.000000000000000000, 0.0000000000000000000 ) ) ;
#77 = DIRECTION ( 'NONE',  ( -0.0000000000000000000, -1.000000000000000000, -0.0000000000000000000 ) ) ;
#78 = DIRECTION ( 'NONE',  ( 0.0000000000000000000, 0.0000000000000000000, -1.000000000000000000 ) ) ;
#79 = PLANE ( 'NONE',  #41 ) ;
#80 = CARTESIAN_POINT ( 'NONE',  ( 0.0000000000000000000, 0.0000000000000000000, 0.0000000000000000000 ) ) ;
#81 = DIRECTION ( 'NONE',  ( 0.0000000000000000000, 1.000000000000000000, 0.0000000000000000000 ) ) ;
#82 = DIRECTION ( 'NONE',  ( 0.0000000000000000000, -0.0000000000000000000, 1.000000000000000000 ) ) ;
#83 = FILL_AREA_STYLE_COLOUR ( '', #10 ) ;
#84 = FILL_AREA_STYLE ('',( #83 ) ) ;
#85 = SURFACE_STYLE_FILL_AREA ( #84 ) ;
#86 = SURFACE_SIDE_STYLE ('',( #85 ) ) ;
#87 = SURFACE_STYLE_USAGE ( .BOTH. , #86 ) ;
#88 = PRESENTATION_STYLE_ASSIGNMENT (( #87 ) ) ;
#89 =( LENGTH_UNIT ( ) NAMED_UNIT ( * ) SI_UNIT ( $, .METRE. ) );
#90 =( CONVERSION_BASED_UNIT ( 'INCH', #29 ) LENGTH_UNIT ( ) NAMED_UNIT ( #24 ) );
#91 =( NAMED_UNIT ( * ) PLANE_ANGLE_UNIT ( ) SI_UNIT ( $, .RADIAN. ) );
#92 =( NAMED_UNIT ( * ) SI_UNIT ( $, .STERADIAN. ) SOLID_ANGLE_UNIT ( ) );
#93 = CARTESIAN_POINT ( 'NONE',  ( 0.0000000000000000000, 0.0000000000000000000, -0.1250000000000000000 ) ) ;
#94 = CARTESIAN_POINT ( 'NONE',  ( 0.0000000000000000000, 1.000000000000000000, -0.1250000000000000000 ) ) ;
#95 = CARTESIAN_POINT ( 'NONE',  ( 1.530808498934191500E-017, 1.000000000000000000, 0.1250000000000000000 ) ) ;
#96 = CARTESIAN_POINT ( 'NONE',  ( 1.530808498934191500E-017, 0.0000000000000000000, 0.1250000000000000000 ) ) ;
#97 =( LENGTH_UNIT ( ) NAMED_UNIT ( * ) SI_UNIT ( $, .METRE. ) );
#98 = ORIENTED_EDGE ( 'NONE', *, *, #17, .F. ) ;
#99 = ORIENTED_EDGE ( 'NONE', *, *, #19, .F. ) ;
#100 = ORIENTED_EDGE ( 'NONE', *, *, #17, .T. ) ;
#101 = ORIENTED_EDGE ( 'NONE', *, *, #18, .T. ) ;
#102 = ORIENTED_EDGE ( 'NONE', *, *, #14, .F. ) ;
#103 = ORIENTED_EDGE ( 'NONE', *, *, #18, .F. ) ;
#104 = ORIENTED_EDGE ( 'NONE', *, *, #15, .T. ) ;
#105 = ORIENTED_EDGE ( 'NONE', *, *, #16, .T. ) ;
#106 = ORIENTED_EDGE ( 'NONE', *, *, #14, .T. ) ;
#107 = ORIENTED_EDGE ( 'NONE', *, *, #15, .F. ) ;
#108 = ORIENTED_EDGE ( 'NONE', *, *, #16, .F. ) ;
#109 = PLANE ( 'NONE',  #140 ) ;
#110 = CARTESIAN_POINT ( 'NONE',  ( 0.0000000000000000000, 1.000000000000000000, 0.0000000000000000000 ) ) ;
#111 = DIRECTION ( 'NONE',  ( 0.0000000000000000000, 1.000000000000000000, 0.0000000000000000000 ) ) ;
#112 = DIRECTION ( 'NONE',  ( 0.0000000000000000000, -0.0000000000000000000, 1.000000000000000000 ) ) ;
#113 = CARTESIAN_POINT ( 'NONE',  ( 0.0000000000000000000, 0.0000000000000000000, 0.0000000000000000000 ) ) ;
#114 = DIRECTION ( 'NONE',  ( 0.0000000000000000000, 1.000000000000000000, 0.0000000000000000000 ) ) ;
#115 = DIRECTION ( 'NONE',  ( 0.0000000000000000000, 0.0000000000000000000, 1.000000000000000000 ) ) ;
#116 = CARTESIAN_POINT ( 'NONE',  ( 0.0000000000000000000, 0.0000000000000000000, 0.0000000000000000000 ) ) ;
#117 = LINE ( 'NONE', #118, #143 ) ;
#118 = CARTESIAN_POINT ( 'NONE',  ( 0.0000000000000000000, 1.000000000000000000, -0.1250000000000000000 ) ) ;
#119 = DIRECTION ( 'NONE',  ( -0.0000000000000000000, -1.000000000000000000, -0.0000000000000000000 ) ) ;
#120 = LINE ( 'NONE', #121, #141 ) ;
#121 = CARTESIAN_POINT ( 'NONE',  ( 1.530808498934191500E-017, 1.000000000000000000, 0.1250000000000000000 ) ) ;
#122 = DIRECTION ( 'NONE',  ( -0.0000000000000000000, -1.000000000000000000, -0.0000000000000000000 ) ) ;
#123 = DIRECTION ( 'NONE',  ( 0.0000000000000000000, 1.000000000000000000, 0.0000000000000000000 ) ) ;
#124 = DIRECTION ( 'NONE',  ( 0.0000000000000000000, 0.0000000000000000000, 1.000000000000000000 ) ) ;
#125 = CARTESIAN_POINT ( 'NONE',  ( 0.0000000000000000000, 1.000000000000000000, 0.0000000000000000000 ) ) ;
#126 = DIRECTION ( 'NONE',  ( 0.0000000000000000000, 1.000000000000000000, 0.0000000000000000000 ) ) ;
#127 = DIRECTION ( 'NONE',  ( 0.0000000000000000000, 0.0000000000000000000, 1.000000000000000000 ) ) ;
#128 = CARTESIAN_POINT ( 'NONE',  ( 0.0000000000000000000, 1.000000000000000000, 0.0000000000000000000 ) ) ;
#129 = DIRECTION ( 'NONE',  ( 0.0000000000000000000, 1.000000000000000000, 0.0000000000000000000 ) ) ;
#130 = DIRECTION ( 'NONE',  ( 0.0000000000000000000, 0.0000000000000000000, 1.000000000000000000 ) ) ;
#131 = CARTESIAN_POINT ( 'NONE',  ( 0.0000000000000000000, 1.000000000000000000, 0.0000000000000000000 ) ) ;
#132 = DIRECTION ( 'NONE',  ( -0.0000000000000000000, -1.000000000000000000, -0.0000000000000000000 ) ) ;
#133 = DIRECTION ( 'NONE',  ( 0.0000000000000000000, 0.0000000000000000000, -1.000000000000000000 ) ) ;
#134 = APPLICATION_CONTEXT ( 'automotive_design' ) ;
#135 = APPLICATION_CONTEXT ( 'automotive_design' ) ;
#136 = AXIS2_PLACEMENT_3D ( 'NONE', #125, #126, #127 ) ;
#137 = FACE_OUTER_BOUND ( 'NONE', #49, .T. ) ;
#138 = FACE_OUTER_BOUND ( 'NONE', #47, .T. ) ;
#139 = CLOSED_SHELL ( 'NONE', ( #20, #21, #9, #22 ) ) ;
#140 = AXIS2_PLACEMENT_3D ( 'NONE', #110, #111, #112 ) ;
#141 = VECTOR ( 'NONE', #122, 39.37007874015748100 ) ;
#142 = AXIS2_PLACEMENT_3D ( 'NONE', #113, #114, #115 ) ;
#143 = VECTOR ( 'NONE', #119, 39.37007874015748100 ) ;
#144 = AXIS2_PLACEMENT_3D ( 'NONE', #116, #123, #124 ) ;
#145 = AXIS2_PLACEMENT_3D ( 'NONE', #128, #129, #130 ) ;
#146 = FACE_OUTER_BOUND ( 'NONE', #48, .T. ) ;
#147 =( GEOMETRIC_REPRESENTATION_CONTEXT ( 3 ) GLOBAL_UNCERTAINTY_ASSIGNED_CONTEXT ( ( #1 ) ) GLOBAL_UNIT_ASSIGNED_CONTEXT ( ( #72, #73, #74 ) ) REPRESENTATION_CONTEXT ( 'NONE', 'WORKASPACE' ) );
#148 =( GEOMETRIC_REPRESENTATION_CONTEXT ( 3 ) GLOBAL_UNCERTAINTY_ASSIGNED_CONTEXT ( ( #2 ) ) GLOBAL_UNIT_ASSIGNED_CONTEXT ( ( #62, #63, #64 ) ) REPRESENTATION_CONTEXT ( 'NONE', 'WORKASPACE' ) );
#149 =( GEOMETRIC_REPRESENTATION_CONTEXT ( 3 ) GLOBAL_UNCERTAINTY_ASSIGNED_CONTEXT ( ( #3 ) ) GLOBAL_UNIT_ASSIGNED_CONTEXT ( ( #90, #91, #92 ) ) REPRESENTATION_CONTEXT ( 'NONE', 'WORKASPACE' ) );
ENDSEC;
END-ISO-10303-21;
