ISO-10303-21;
HEADER;
FILE_DESCRIPTION (( 'STEP AP214' ),
    '1' );
FILE_NAME ('R1000C.step',
    '2012-04-20T21:04:09',
    ( '' ),
    ( '' ),
    'SwSTEP 2.0',
    'SolidWorks 2012',
    '' );
FILE_SCHEMA (( 'AUTOMOTIVE_DESIGN' ));
ENDSEC;

DATA;
#1 = UNCERTAINTY_MEASURE_WITH_UNIT (LENGTH_MEASURE( 1.000000000000000100E-005 ), #127, 'distance_accuracy_value', 'NONE');
#2 = UNCERTAINTY_MEASURE_WITH_UNIT (LENGTH_MEASURE( 1.000000000000000100E-005 ), #81, 'distance_accuracy_value', 'NONE');
#3 = UNCERTAINTY_MEASURE_WITH_UNIT (LENGTH_MEASURE( 1.000000000000000100E-005 ), #73, 'distance_accuracy_value', 'NONE');
#4 = ADVANCED_BREP_SHAPE_REPRESENTATION ( 'R1000C', ( #50, #28 ), #30 ) ;
#5 = COLOUR_RGB ( '',0.5686274509803921400, 0.5686274509803921400, 0.5882352941176470800 ) ;
#6 = PRODUCT_RELATED_PRODUCT_CATEGORY ( 'part', '', ( #56 ) ) ;
#7 = ADVANCED_FACE ( 'NONE', ( #137 ), #139, .T. ) ;
#8 = COLOUR_RGB ( '',0.5686274509803921400, 0.5686274509803921400, 0.5882352941176470800 ) ;
#9 = PRODUCT_DEFINITION ( 'UNKNOWN', '', #24, #51 ) ;
#10 = CIRCLE ( 'NONE', #140, 0.1875000000000000300 ) ;
#11 = CIRCLE ( 'NONE', #32, 0.1875000000000000300 ) ;
#12 = CIRCLE ( 'NONE', #36, 0.1875000000000000300 ) ;
#13 = ADVANCED_FACE ( 'NONE', ( #136 ), #143, .T. ) ;
#14 = ADVANCED_FACE ( 'NONE', ( #147 ), #97, .T. ) ;
#15 = ADVANCED_FACE ( 'NONE', ( #138 ), #101, .F. ) ;
#16 = EDGE_CURVE ( 'NONE', #90, #88, #20, .T. ) ;
#17 = EDGE_CURVE ( 'NONE', #88, #87, #109, .T. ) ;
#18 = EDGE_CURVE ( 'NONE', #89, #87, #12, .T. ) ;
#19 = EDGE_CURVE ( 'NONE', #87, #89, #11, .T. ) ;
#20 = CIRCLE ( 'NONE', #135, 0.1875000000000000300 ) ;
#21 = EDGE_CURVE ( 'NONE', #90, #89, #61, .T. ) ;
#22 = EDGE_CURVE ( 'NONE', #88, #90, #10, .T. ) ;
#23 = PRESENTATION_LAYER_ASSIGNMENT (  '', '', ( #26 ) ) ;
#24 = PRODUCT_DEFINITION_FORMATION_WITH_SPECIFIED_SOURCE ( 'ANY', '', #56, .NOT_KNOWN. ) ;
#25 = MECHANICAL_DESIGN_GEOMETRIC_PRESENTATION_REPRESENTATION (  '', ( #26 ), #31 ) ;
#26 = STYLED_ITEM ( 'NONE', ( #125 ), #4 ) ;
#27 = LENGTH_MEASURE_WITH_UNIT ( LENGTH_MEASURE( 0.02539999999999999900 ), #126 );
#28 = AXIS2_PLACEMENT_3D ( 'NONE', #130, #131, #132 ) ;
#29 =( GEOMETRIC_REPRESENTATION_CONTEXT ( 3 ) GLOBAL_UNCERTAINTY_ASSIGNED_CONTEXT ( ( #3 ) ) GLOBAL_UNIT_ASSIGNED_CONTEXT ( ( #73, #74, #75 ) ) REPRESENTATION_CONTEXT ( 'NONE', 'WORKASPACE' ) );
#30 =( GEOMETRIC_REPRESENTATION_CONTEXT ( 3 ) GLOBAL_UNCERTAINTY_ASSIGNED_CONTEXT ( ( #2 ) ) GLOBAL_UNIT_ASSIGNED_CONTEXT ( ( #81, #118, #119 ) ) REPRESENTATION_CONTEXT ( 'NONE', 'WORKASPACE' ) );
#31 =( GEOMETRIC_REPRESENTATION_CONTEXT ( 3 ) GLOBAL_UNCERTAINTY_ASSIGNED_CONTEXT ( ( #1 ) ) GLOBAL_UNIT_ASSIGNED_CONTEXT ( ( #127, #128, #129 ) ) REPRESENTATION_CONTEXT ( 'NONE', 'WORKASPACE' ) );
#32 = AXIS2_PLACEMENT_3D ( 'NONE', #114, #115, #116 ) ;
#33 = VECTOR ( 'NONE', #111, 39.37007874015748100 ) ;
#34 = VECTOR ( 'NONE', #63, 39.37007874015748100 ) ;
#35 = LENGTH_MEASURE_WITH_UNIT ( LENGTH_MEASURE( 0.02539999999999999900 ), #72 );
#36 = AXIS2_PLACEMENT_3D ( 'NONE', #108, #112, #113 ) ;
#37 = LENGTH_MEASURE_WITH_UNIT ( LENGTH_MEASURE( 0.02539999999999999900 ), #80 );
#38 = MECHANICAL_DESIGN_GEOMETRIC_PRESENTATION_REPRESENTATION (  '', ( #146 ), #29 ) ;
#39 = ORIENTED_EDGE ( 'NONE', *, *, #19, .F. ) ;
#40 = ORIENTED_EDGE ( 'NONE', *, *, #22, .T. ) ;
#41 = ORIENTED_EDGE ( 'NONE', *, *, #18, .F. ) ;
#42 = EDGE_LOOP ( 'NONE', ( #48, #82, #49, #84 ) ) ;
#43 = EDGE_LOOP ( 'NONE', ( #85, #47, #86, #83 ) ) ;
#44 = EDGE_LOOP ( 'NONE', ( #46, #40 ) ) ;
#45 = EDGE_LOOP ( 'NONE', ( #41, #39 ) ) ;
#46 = ORIENTED_EDGE ( 'NONE', *, *, #16, .T. ) ;
#47 = ORIENTED_EDGE ( 'NONE', *, *, #17, .T. ) ;
#48 = ORIENTED_EDGE ( 'NONE', *, *, #17, .F. ) ;
#49 = ORIENTED_EDGE ( 'NONE', *, *, #21, .T. ) ;
#50 = MANIFOLD_SOLID_BREP ( 'Boss-Extrude1', #145 ) ;
#51 = PRODUCT_DEFINITION_CONTEXT ( 'detailed design', #134, 'design' ) ;
#52 = PRODUCT_DEFINITION_SHAPE ( 'NONE', 'NONE',  #9 ) ;
#53 = DIMENSIONAL_EXPONENTS ( 1.000000000000000000, 0.0000000000000000000, 0.0000000000000000000, 0.0000000000000000000, 0.0000000000000000000, 0.0000000000000000000, 0.0000000000000000000 ) ;
#54 = DIMENSIONAL_EXPONENTS ( 1.000000000000000000, 0.0000000000000000000, 0.0000000000000000000, 0.0000000000000000000, 0.0000000000000000000, 0.0000000000000000000, 0.0000000000000000000 ) ;
#55 = DIMENSIONAL_EXPONENTS ( 1.000000000000000000, 0.0000000000000000000, 0.0000000000000000000, 0.0000000000000000000, 0.0000000000000000000, 0.0000000000000000000, 0.0000000000000000000 ) ;
#56 = PRODUCT ( 'R1000C', 'R1000C', '', ( #59 ) ) ;
#57 = SHAPE_DEFINITION_REPRESENTATION ( #52, #4 ) ;
#58 = APPLICATION_PROTOCOL_DEFINITION ( 'draft international standard', 'automotive_design', 1998, #133 ) ;
#59 = PRODUCT_CONTEXT ( 'NONE', #133, 'mechanical' ) ;
#60 = APPLICATION_PROTOCOL_DEFINITION ( 'draft international standard', 'automotive_design', 1998, #134 ) ;
#61 = LINE ( 'NONE', #62, #34 ) ;
#62 = CARTESIAN_POINT ( 'NONE',  ( 0.0000000000000000000, 1.000000000000000000, -0.1875000000000000300 ) ) ;
#63 = DIRECTION ( 'NONE',  ( -0.0000000000000000000, -1.000000000000000000, -0.0000000000000000000 ) ) ;
#64 = DIRECTION ( 'NONE',  ( 0.0000000000000000000, 1.000000000000000000, 0.0000000000000000000 ) ) ;
#65 = DIRECTION ( 'NONE',  ( 0.0000000000000000000, 0.0000000000000000000, 1.000000000000000000 ) ) ;
#66 = FILL_AREA_STYLE_COLOUR ( '', #5 ) ;
#67 = FILL_AREA_STYLE ('',( #66 ) ) ;
#68 = SURFACE_STYLE_FILL_AREA ( #67 ) ;
#69 = SURFACE_SIDE_STYLE ('',( #68 ) ) ;
#70 = SURFACE_STYLE_USAGE ( .BOTH. , #69 ) ;
#71 = PRESENTATION_STYLE_ASSIGNMENT (( #70 ) ) ;
#72 =( LENGTH_UNIT ( ) NAMED_UNIT ( * ) SI_UNIT ( $, .METRE. ) );
#73 =( CONVERSION_BASED_UNIT ( 'INCH', #35 ) LENGTH_UNIT ( ) NAMED_UNIT ( #54 ) );
#74 =( NAMED_UNIT ( * ) PLANE_ANGLE_UNIT ( ) SI_UNIT ( $, .RADIAN. ) );
#75 =( NAMED_UNIT ( * ) SI_UNIT ( $, .STERADIAN. ) SOLID_ANGLE_UNIT ( ) );
#76 = CARTESIAN_POINT ( 'NONE',  ( 2.296212748401287700E-017, 0.0000000000000000000, 0.1875000000000000300 ) ) ;
#77 = CARTESIAN_POINT ( 'NONE',  ( 2.296212748401287700E-017, 1.000000000000000000, 0.1875000000000000300 ) ) ;
#78 = CARTESIAN_POINT ( 'NONE',  ( 0.0000000000000000000, 0.0000000000000000000, -0.1875000000000000300 ) ) ;
#79 = CARTESIAN_POINT ( 'NONE',  ( 0.0000000000000000000, 1.000000000000000000, -0.1875000000000000300 ) ) ;
#80 =( LENGTH_UNIT ( ) NAMED_UNIT ( * ) SI_UNIT ( $, .METRE. ) );
#81 =( CONVERSION_BASED_UNIT ( 'INCH', #37 ) LENGTH_UNIT ( ) NAMED_UNIT ( #53 ) );
#82 = ORIENTED_EDGE ( 'NONE', *, *, #16, .F. ) ;
#83 = ORIENTED_EDGE ( 'NONE', *, *, #21, .F. ) ;
#84 = ORIENTED_EDGE ( 'NONE', *, *, #18, .T. ) ;
#85 = ORIENTED_EDGE ( 'NONE', *, *, #22, .F. ) ;
#86 = ORIENTED_EDGE ( 'NONE', *, *, #19, .T. ) ;
#87 = VERTEX_POINT ( 'NONE', #76 ) ;
#88 = VERTEX_POINT ( 'NONE', #77 ) ;
#89 = VERTEX_POINT ( 'NONE', #78 ) ;
#90 = VERTEX_POINT ( 'NONE', #79 ) ;
#91 = CARTESIAN_POINT ( 'NONE',  ( 0.0000000000000000000, 1.000000000000000000, 0.0000000000000000000 ) ) ;
#92 = DIRECTION ( 'NONE',  ( -0.0000000000000000000, -1.000000000000000000, -0.0000000000000000000 ) ) ;
#93 = DIRECTION ( 'NONE',  ( 0.0000000000000000000, 0.0000000000000000000, -1.000000000000000000 ) ) ;
#94 = CARTESIAN_POINT ( 'NONE',  ( 0.0000000000000000000, 1.000000000000000000, 0.0000000000000000000 ) ) ;
#95 = DIRECTION ( 'NONE',  ( -0.0000000000000000000, -1.000000000000000000, -0.0000000000000000000 ) ) ;
#96 = DIRECTION ( 'NONE',  ( 0.0000000000000000000, 0.0000000000000000000, -1.000000000000000000 ) ) ;
#97 = PLANE ( 'NONE',  #141 ) ;
#98 = CARTESIAN_POINT ( 'NONE',  ( 0.0000000000000000000, 1.000000000000000000, 0.0000000000000000000 ) ) ;
#99 = DIRECTION ( 'NONE',  ( 0.0000000000000000000, 1.000000000000000000, 0.0000000000000000000 ) ) ;
#100 = DIRECTION ( 'NONE',  ( 0.0000000000000000000, -0.0000000000000000000, 1.000000000000000000 ) ) ;
#101 = PLANE ( 'NONE',  #149 ) ;
#102 = CARTESIAN_POINT ( 'NONE',  ( 0.0000000000000000000, 0.0000000000000000000, 0.0000000000000000000 ) ) ;
#103 = DIRECTION ( 'NONE',  ( 0.0000000000000000000, 1.000000000000000000, 0.0000000000000000000 ) ) ;
#104 = DIRECTION ( 'NONE',  ( 0.0000000000000000000, -0.0000000000000000000, 1.000000000000000000 ) ) ;
#105 = CARTESIAN_POINT ( 'NONE',  ( 0.0000000000000000000, 1.000000000000000000, 0.0000000000000000000 ) ) ;
#106 = DIRECTION ( 'NONE',  ( 0.0000000000000000000, 1.000000000000000000, 0.0000000000000000000 ) ) ;
#107 = DIRECTION ( 'NONE',  ( 0.0000000000000000000, 0.0000000000000000000, 1.000000000000000000 ) ) ;
#108 = CARTESIAN_POINT ( 'NONE',  ( 0.0000000000000000000, 0.0000000000000000000, 0.0000000000000000000 ) ) ;
#109 = LINE ( 'NONE', #110, #33 ) ;
#110 = CARTESIAN_POINT ( 'NONE',  ( 2.296212748401287700E-017, 1.000000000000000000, 0.1875000000000000300 ) ) ;
#111 = DIRECTION ( 'NONE',  ( -0.0000000000000000000, -1.000000000000000000, -0.0000000000000000000 ) ) ;
#112 = DIRECTION ( 'NONE',  ( 0.0000000000000000000, 1.000000000000000000, 0.0000000000000000000 ) ) ;
#113 = DIRECTION ( 'NONE',  ( 0.0000000000000000000, 0.0000000000000000000, 1.000000000000000000 ) ) ;
#114 = CARTESIAN_POINT ( 'NONE',  ( 0.0000000000000000000, 0.0000000000000000000, 0.0000000000000000000 ) ) ;
#115 = DIRECTION ( 'NONE',  ( 0.0000000000000000000, 1.000000000000000000, 0.0000000000000000000 ) ) ;
#116 = DIRECTION ( 'NONE',  ( 0.0000000000000000000, 0.0000000000000000000, 1.000000000000000000 ) ) ;
#117 = CARTESIAN_POINT ( 'NONE',  ( 0.0000000000000000000, 1.000000000000000000, 0.0000000000000000000 ) ) ;
#118 =( NAMED_UNIT ( * ) PLANE_ANGLE_UNIT ( ) SI_UNIT ( $, .RADIAN. ) );
#119 =( NAMED_UNIT ( * ) SI_UNIT ( $, .STERADIAN. ) SOLID_ANGLE_UNIT ( ) );
#120 = FILL_AREA_STYLE_COLOUR ( '', #8 ) ;
#121 = FILL_AREA_STYLE ('',( #120 ) ) ;
#122 = SURFACE_STYLE_FILL_AREA ( #121 ) ;
#123 = SURFACE_SIDE_STYLE ('',( #122 ) ) ;
#124 = SURFACE_STYLE_USAGE ( .BOTH. , #123 ) ;
#125 = PRESENTATION_STYLE_ASSIGNMENT (( #124 ) ) ;
#126 =( LENGTH_UNIT ( ) NAMED_UNIT ( * ) SI_UNIT ( $, .METRE. ) );
#127 =( CONVERSION_BASED_UNIT ( 'INCH', #27 ) LENGTH_UNIT ( ) NAMED_UNIT ( #55 ) );
#128 =( NAMED_UNIT ( * ) PLANE_ANGLE_UNIT ( ) SI_UNIT ( $, .RADIAN. ) );
#129 =( NAMED_UNIT ( * ) SI_UNIT ( $, .STERADIAN. ) SOLID_ANGLE_UNIT ( ) );
#130 = CARTESIAN_POINT ( 'NONE',  ( 0.0000000000000000000, 0.0000000000000000000, 0.0000000000000000000 ) ) ;
#131 = DIRECTION ( 'NONE',  ( 0.0000000000000000000, 0.0000000000000000000, 1.000000000000000000 ) ) ;
#132 = DIRECTION ( 'NONE',  ( 1.000000000000000000, 0.0000000000000000000, 0.0000000000000000000 ) ) ;
#133 = APPLICATION_CONTEXT ( 'automotive_design' ) ;
#134 = APPLICATION_CONTEXT ( 'automotive_design' ) ;
#135 = AXIS2_PLACEMENT_3D ( 'NONE', #105, #106, #107 ) ;
#136 = FACE_OUTER_BOUND ( 'NONE', #42, .T. ) ;
#137 = FACE_OUTER_BOUND ( 'NONE', #43, .T. ) ;
#138 = FACE_OUTER_BOUND ( 'NONE', #45, .T. ) ;
#139 = CYLINDRICAL_SURFACE ( 'NONE', #142, 0.1875000000000000300 ) ;
#140 = AXIS2_PLACEMENT_3D ( 'NONE', #117, #64, #65 ) ;
#141 = AXIS2_PLACEMENT_3D ( 'NONE', #98, #99, #100 ) ;
#142 = AXIS2_PLACEMENT_3D ( 'NONE', #91, #92, #93 ) ;
#143 = CYLINDRICAL_SURFACE ( 'NONE', #148, 0.1875000000000000300 ) ;
#144 = PRESENTATION_LAYER_ASSIGNMENT (  '', '', ( #146 ) ) ;
#145 = CLOSED_SHELL ( 'NONE', ( #7, #13, #14, #15 ) ) ;
#146 = STYLED_ITEM ( 'NONE', ( #71 ), #50 ) ;
#147 = FACE_OUTER_BOUND ( 'NONE', #44, .T. ) ;
#148 = AXIS2_PLACEMENT_3D ( 'NONE', #94, #95, #96 ) ;
#149 = AXIS2_PLACEMENT_3D ( 'NONE', #102, #103, #104 ) ;
ENDSEC;
END-ISO-10303-21;
