ISO-10303-21;
HEADER;
FILE_DESCRIPTION (( 'STEP AP214' ),
    '1' );
FILE_NAME ('R1000D.step',
    '2012-04-20T21:04:11',
    ( '' ),
    ( '' ),
    'SwSTEP 2.0',
    'SolidWorks 2012',
    '' );
FILE_SCHEMA (( 'AUTOMOTIVE_DESIGN' ));
ENDSEC;

DATA;
#1 = UNCERTAINTY_MEASURE_WITH_UNIT (LENGTH_MEASURE( 1.000000000000000100E-005 ), #95, 'distance_accuracy_value', 'NONE');
#2 = ADVANCED_BREP_SHAPE_REPRESENTATION ( 'R1000D', ( #50, #23 ), #148 ) ;
#3 = UNCERTAINTY_MEASURE_WITH_UNIT (LENGTH_MEASURE( 1.000000000000000100E-005 ), #91, 'distance_accuracy_value', 'NONE');
#4 = UNCERTAINTY_MEASURE_WITH_UNIT (LENGTH_MEASURE( 1.000000000000000100E-005 ), #70, 'distance_accuracy_value', 'NONE');
#5 = PRODUCT_DEFINITION ( 'UNKNOWN', '', #27, #52 ) ;
#6 = CIRCLE ( 'NONE', #141, 0.2500000000000000000 ) ;
#7 = CIRCLE ( 'NONE', #134, 0.2500000000000000000 ) ;
#8 = COLOUR_RGB ( '',0.5686274509803921400, 0.5686274509803921400, 0.5882352941176470800 ) ;
#9 = CIRCLE ( 'NONE', #144, 0.2500000000000000000 ) ;
#10 = CIRCLE ( 'NONE', #138, 0.2500000000000000000 ) ;
#11 = EDGE_CURVE ( 'NONE', #42, #44, #6, .T. ) ;
#12 = EDGE_CURVE ( 'NONE', #43, #44, #108, .T. ) ;
#13 = EDGE_CURVE ( 'NONE', #44, #42, #10, .T. ) ;
#14 = EDGE_CURVE ( 'NONE', #45, #42, #114, .T. ) ;
#15 = EDGE_CURVE ( 'NONE', #45, #43, #9, .T. ) ;
#16 = EDGE_CURVE ( 'NONE', #43, #45, #7, .T. ) ;
#17 = ADVANCED_FACE ( 'NONE', ( #137 ), #139, .T. ) ;
#18 = ADVANCED_FACE ( 'NONE', ( #142 ), #125, .T. ) ;
#19 = ADVANCED_FACE ( 'NONE', ( #32 ), #136, .T. ) ;
#20 = COLOUR_RGB ( '',0.5686274509803921400, 0.5686274509803921400, 0.5882352941176470800 ) ;
#21 = PRODUCT_RELATED_PRODUCT_CATEGORY ( 'part', '', ( #56 ) ) ;
#22 = ADVANCED_FACE ( 'NONE', ( #33 ), #76, .F. ) ;
#23 = AXIS2_PLACEMENT_3D ( 'NONE', #73, #74, #75 ) ;
#24 = LENGTH_MEASURE_WITH_UNIT ( LENGTH_MEASURE( 0.02539999999999999900 ), #69 );
#25 = PRESENTATION_LAYER_ASSIGNMENT (  '', '', ( #26 ) ) ;
#26 = STYLED_ITEM ( 'NONE', ( #68 ), #2 ) ;
#27 = PRODUCT_DEFINITION_FORMATION_WITH_SPECIFIED_SOURCE ( 'ANY', '', #56, .NOT_KNOWN. ) ;
#28 = MECHANICAL_DESIGN_GEOMETRIC_PRESENTATION_REPRESENTATION (  '', ( #26 ), #147 ) ;
#29 = LENGTH_MEASURE_WITH_UNIT ( LENGTH_MEASURE( 0.02539999999999999900 ), #90 );
#30 = STYLED_ITEM ( 'NONE', ( #89 ), #50 ) ;
#31 = PRESENTATION_LAYER_ASSIGNMENT (  '', '', ( #30 ) ) ;
#32 = FACE_OUTER_BOUND ( 'NONE', #39, .T. ) ;
#33 = FACE_OUTER_BOUND ( 'NONE', #41, .T. ) ;
#34 = AXIS2_PLACEMENT_3D ( 'NONE', #77, #78, #79 ) ;
#35 = AXIS2_PLACEMENT_3D ( 'NONE', #126, #127, #128 ) ;
#36 = MECHANICAL_DESIGN_GEOMETRIC_PRESENTATION_REPRESENTATION (  '', ( #30 ), #149 ) ;
#37 = LENGTH_MEASURE_WITH_UNIT ( LENGTH_MEASURE( 0.02539999999999999900 ), #94 );
#38 = EDGE_LOOP ( 'NONE', ( #99, #101, #97, #96 ) ) ;
#39 = EDGE_LOOP ( 'NONE', ( #48, #46, #47, #100 ) ) ;
#40 = EDGE_LOOP ( 'NONE', ( #103, #102 ) ) ;
#41 = EDGE_LOOP ( 'NONE', ( #49, #98 ) ) ;
#42 = VERTEX_POINT ( 'NONE', #80 ) ;
#43 = VERTEX_POINT ( 'NONE', #81 ) ;
#44 = VERTEX_POINT ( 'NONE', #82 ) ;
#45 = VERTEX_POINT ( 'NONE', #83 ) ;
#46 = ORIENTED_EDGE ( 'NONE', *, *, #12, .T. ) ;
#47 = ORIENTED_EDGE ( 'NONE', *, *, #13, .T. ) ;
#48 = ORIENTED_EDGE ( 'NONE', *, *, #16, .F. ) ;
#49 = ORIENTED_EDGE ( 'NONE', *, *, #11, .F. ) ;
#50 = MANIFOLD_SOLID_BREP ( 'Boss-Extrude1', #145 ) ;
#51 = PRODUCT_DEFINITION_SHAPE ( 'NONE', 'NONE',  #5 ) ;
#52 = PRODUCT_DEFINITION_CONTEXT ( 'detailed design', #133, 'design' ) ;
#53 = DIMENSIONAL_EXPONENTS ( 1.000000000000000000, 0.0000000000000000000, 0.0000000000000000000, 0.0000000000000000000, 0.0000000000000000000, 0.0000000000000000000, 0.0000000000000000000 ) ;
#54 = DIMENSIONAL_EXPONENTS ( 1.000000000000000000, 0.0000000000000000000, 0.0000000000000000000, 0.0000000000000000000, 0.0000000000000000000, 0.0000000000000000000, 0.0000000000000000000 ) ;
#55 = DIMENSIONAL_EXPONENTS ( 1.000000000000000000, 0.0000000000000000000, 0.0000000000000000000, 0.0000000000000000000, 0.0000000000000000000, 0.0000000000000000000, 0.0000000000000000000 ) ;
#56 = PRODUCT ( 'R1000D', 'R1000D', '', ( #59 ) ) ;
#57 = SHAPE_DEFINITION_REPRESENTATION ( #51, #2 ) ;
#58 = APPLICATION_PROTOCOL_DEFINITION ( 'draft international standard', 'automotive_design', 1998, #132 ) ;
#59 = PRODUCT_CONTEXT ( 'NONE', #132, 'mechanical' ) ;
#60 = APPLICATION_PROTOCOL_DEFINITION ( 'draft international standard', 'automotive_design', 1998, #133 ) ;
#61 =( NAMED_UNIT ( * ) PLANE_ANGLE_UNIT ( ) SI_UNIT ( $, .RADIAN. ) );
#62 =( NAMED_UNIT ( * ) SI_UNIT ( $, .STERADIAN. ) SOLID_ANGLE_UNIT ( ) );
#63 = FILL_AREA_STYLE_COLOUR ( '', #20 ) ;
#64 = FILL_AREA_STYLE ('',( #63 ) ) ;
#65 = SURFACE_STYLE_FILL_AREA ( #64 ) ;
#66 = SURFACE_SIDE_STYLE ('',( #65 ) ) ;
#67 = SURFACE_STYLE_USAGE ( .BOTH. , #66 ) ;
#68 = PRESENTATION_STYLE_ASSIGNMENT (( #67 ) ) ;
#69 =( LENGTH_UNIT ( ) NAMED_UNIT ( * ) SI_UNIT ( $, .METRE. ) );
#70 =( CONVERSION_BASED_UNIT ( 'INCH', #24 ) LENGTH_UNIT ( ) NAMED_UNIT ( #55 ) );
#71 =( NAMED_UNIT ( * ) PLANE_ANGLE_UNIT ( ) SI_UNIT ( $, .RADIAN. ) );
#72 =( NAMED_UNIT ( * ) SI_UNIT ( $, .STERADIAN. ) SOLID_ANGLE_UNIT ( ) );
#73 = CARTESIAN_POINT ( 'NONE',  ( 0.0000000000000000000, 0.0000000000000000000, 0.0000000000000000000 ) ) ;
#74 = DIRECTION ( 'NONE',  ( 0.0000000000000000000, 0.0000000000000000000, 1.000000000000000000 ) ) ;
#75 = DIRECTION ( 'NONE',  ( 1.000000000000000000, 0.0000000000000000000, 0.0000000000000000000 ) ) ;
#76 = PLANE ( 'NONE',  #34 ) ;
#77 = CARTESIAN_POINT ( 'NONE',  ( 0.0000000000000000000, 0.0000000000000000000, 0.0000000000000000000 ) ) ;
#78 = DIRECTION ( 'NONE',  ( 0.0000000000000000000, 1.000000000000000000, 0.0000000000000000000 ) ) ;
#79 = DIRECTION ( 'NONE',  ( 0.0000000000000000000, -0.0000000000000000000, 1.000000000000000000 ) ) ;
#80 = CARTESIAN_POINT ( 'NONE',  ( 0.0000000000000000000, 0.0000000000000000000, -0.2500000000000000000 ) ) ;
#81 = CARTESIAN_POINT ( 'NONE',  ( 3.061616997868383000E-017, 1.000000000000000000, 0.2500000000000000000 ) ) ;
#82 = CARTESIAN_POINT ( 'NONE',  ( 3.061616997868383000E-017, 0.0000000000000000000, 0.2500000000000000000 ) ) ;
#83 = CARTESIAN_POINT ( 'NONE',  ( 0.0000000000000000000, 1.000000000000000000, -0.2500000000000000000 ) ) ;
#84 = FILL_AREA_STYLE_COLOUR ( '', #8 ) ;
#85 = FILL_AREA_STYLE ('',( #84 ) ) ;
#86 = SURFACE_STYLE_FILL_AREA ( #85 ) ;
#87 = SURFACE_SIDE_STYLE ('',( #86 ) ) ;
#88 = SURFACE_STYLE_USAGE ( .BOTH. , #87 ) ;
#89 = PRESENTATION_STYLE_ASSIGNMENT (( #88 ) ) ;
#90 =( LENGTH_UNIT ( ) NAMED_UNIT ( * ) SI_UNIT ( $, .METRE. ) );
#91 =( CONVERSION_BASED_UNIT ( 'INCH', #29 ) LENGTH_UNIT ( ) NAMED_UNIT ( #53 ) );
#92 =( NAMED_UNIT ( * ) PLANE_ANGLE_UNIT ( ) SI_UNIT ( $, .RADIAN. ) );
#93 =( NAMED_UNIT ( * ) SI_UNIT ( $, .STERADIAN. ) SOLID_ANGLE_UNIT ( ) );
#94 =( LENGTH_UNIT ( ) NAMED_UNIT ( * ) SI_UNIT ( $, .METRE. ) );
#95 =( CONVERSION_BASED_UNIT ( 'INCH', #37 ) LENGTH_UNIT ( ) NAMED_UNIT ( #54 ) );
#96 = ORIENTED_EDGE ( 'NONE', *, *, #11, .T. ) ;
#97 = ORIENTED_EDGE ( 'NONE', *, *, #14, .T. ) ;
#98 = ORIENTED_EDGE ( 'NONE', *, *, #13, .F. ) ;
#99 = ORIENTED_EDGE ( 'NONE', *, *, #12, .F. ) ;
#100 = ORIENTED_EDGE ( 'NONE', *, *, #14, .F. ) ;
#101 = ORIENTED_EDGE ( 'NONE', *, *, #15, .F. ) ;
#102 = ORIENTED_EDGE ( 'NONE', *, *, #16, .T. ) ;
#103 = ORIENTED_EDGE ( 'NONE', *, *, #15, .T. ) ;
#104 = CARTESIAN_POINT ( 'NONE',  ( 0.0000000000000000000, 0.0000000000000000000, 0.0000000000000000000 ) ) ;
#105 = DIRECTION ( 'NONE',  ( 0.0000000000000000000, 1.000000000000000000, 0.0000000000000000000 ) ) ;
#106 = DIRECTION ( 'NONE',  ( 0.0000000000000000000, 0.0000000000000000000, 1.000000000000000000 ) ) ;
#107 = CARTESIAN_POINT ( 'NONE',  ( 0.0000000000000000000, 0.0000000000000000000, 0.0000000000000000000 ) ) ;
#108 = LINE ( 'NONE', #109, #143 ) ;
#109 = CARTESIAN_POINT ( 'NONE',  ( 3.061616997868383000E-017, 1.000000000000000000, 0.2500000000000000000 ) ) ;
#110 = DIRECTION ( 'NONE',  ( -0.0000000000000000000, -1.000000000000000000, -0.0000000000000000000 ) ) ;
#111 = DIRECTION ( 'NONE',  ( 0.0000000000000000000, 1.000000000000000000, 0.0000000000000000000 ) ) ;
#112 = DIRECTION ( 'NONE',  ( 0.0000000000000000000, 0.0000000000000000000, 1.000000000000000000 ) ) ;
#113 = CARTESIAN_POINT ( 'NONE',  ( 0.0000000000000000000, 1.000000000000000000, 0.0000000000000000000 ) ) ;
#114 = LINE ( 'NONE', #115, #135 ) ;
#115 = CARTESIAN_POINT ( 'NONE',  ( 0.0000000000000000000, 1.000000000000000000, -0.2500000000000000000 ) ) ;
#116 = DIRECTION ( 'NONE',  ( -0.0000000000000000000, -1.000000000000000000, -0.0000000000000000000 ) ) ;
#117 = DIRECTION ( 'NONE',  ( 0.0000000000000000000, 1.000000000000000000, 0.0000000000000000000 ) ) ;
#118 = DIRECTION ( 'NONE',  ( 0.0000000000000000000, 0.0000000000000000000, 1.000000000000000000 ) ) ;
#119 = CARTESIAN_POINT ( 'NONE',  ( 0.0000000000000000000, 1.000000000000000000, 0.0000000000000000000 ) ) ;
#120 = DIRECTION ( 'NONE',  ( 0.0000000000000000000, 1.000000000000000000, 0.0000000000000000000 ) ) ;
#121 = DIRECTION ( 'NONE',  ( 0.0000000000000000000, 0.0000000000000000000, 1.000000000000000000 ) ) ;
#122 = CARTESIAN_POINT ( 'NONE',  ( 0.0000000000000000000, 1.000000000000000000, 0.0000000000000000000 ) ) ;
#123 = DIRECTION ( 'NONE',  ( -0.0000000000000000000, -1.000000000000000000, -0.0000000000000000000 ) ) ;
#124 = DIRECTION ( 'NONE',  ( 0.0000000000000000000, 0.0000000000000000000, -1.000000000000000000 ) ) ;
#125 = PLANE ( 'NONE',  #35 ) ;
#126 = CARTESIAN_POINT ( 'NONE',  ( 0.0000000000000000000, 1.000000000000000000, 0.0000000000000000000 ) ) ;
#127 = DIRECTION ( 'NONE',  ( 0.0000000000000000000, 1.000000000000000000, 0.0000000000000000000 ) ) ;
#128 = DIRECTION ( 'NONE',  ( 0.0000000000000000000, -0.0000000000000000000, 1.000000000000000000 ) ) ;
#129 = CARTESIAN_POINT ( 'NONE',  ( 0.0000000000000000000, 1.000000000000000000, 0.0000000000000000000 ) ) ;
#130 = DIRECTION ( 'NONE',  ( -0.0000000000000000000, -1.000000000000000000, -0.0000000000000000000 ) ) ;
#131 = DIRECTION ( 'NONE',  ( 0.0000000000000000000, 0.0000000000000000000, -1.000000000000000000 ) ) ;
#132 = APPLICATION_CONTEXT ( 'automotive_design' ) ;
#133 = APPLICATION_CONTEXT ( 'automotive_design' ) ;
#134 = AXIS2_PLACEMENT_3D ( 'NONE', #119, #120, #121 ) ;
#135 = VECTOR ( 'NONE', #116, 39.37007874015748100 ) ;
#136 = CYLINDRICAL_SURFACE ( 'NONE', #146, 0.2500000000000000000 ) ;
#137 = FACE_OUTER_BOUND ( 'NONE', #38, .T. ) ;
#138 = AXIS2_PLACEMENT_3D ( 'NONE', #107, #111, #112 ) ;
#139 = CYLINDRICAL_SURFACE ( 'NONE', #140, 0.2500000000000000000 ) ;
#140 = AXIS2_PLACEMENT_3D ( 'NONE', #122, #123, #124 ) ;
#141 = AXIS2_PLACEMENT_3D ( 'NONE', #104, #105, #106 ) ;
#142 = FACE_OUTER_BOUND ( 'NONE', #40, .T. ) ;
#143 = VECTOR ( 'NONE', #110, 39.37007874015748100 ) ;
#144 = AXIS2_PLACEMENT_3D ( 'NONE', #113, #117, #118 ) ;
#145 = CLOSED_SHELL ( 'NONE', ( #19, #17, #18, #22 ) ) ;
#146 = AXIS2_PLACEMENT_3D ( 'NONE', #129, #130, #131 ) ;
#147 =( GEOMETRIC_REPRESENTATION_CONTEXT ( 3 ) GLOBAL_UNCERTAINTY_ASSIGNED_CONTEXT ( ( #4 ) ) GLOBAL_UNIT_ASSIGNED_CONTEXT ( ( #70, #71, #72 ) ) REPRESENTATION_CONTEXT ( 'NONE', 'WORKASPACE' ) );
#148 =( GEOMETRIC_REPRESENTATION_CONTEXT ( 3 ) GLOBAL_UNCERTAINTY_ASSIGNED_CONTEXT ( ( #1 ) ) GLOBAL_UNIT_ASSIGNED_CONTEXT ( ( #95, #61, #62 ) ) REPRESENTATION_CONTEXT ( 'NONE', 'WORKASPACE' ) );
#149 =( GEOMETRIC_REPRESENTATION_CONTEXT ( 3 ) GLOBAL_UNCERTAINTY_ASSIGNED_CONTEXT ( ( #3 ) ) GLOBAL_UNIT_ASSIGNED_CONTEXT ( ( #91, #92, #93 ) ) REPRESENTATION_CONTEXT ( 'NONE', 'WORKASPACE' ) );
ENDSEC;
END-ISO-10303-21;
