ISO-10303-21;
HEADER;
FILE_DESCRIPTION (( 'STEP AP214' ),
    '1' );
FILE_NAME ('R125A-DM.step',
    '2012-04-20T21:04:30',
    ( '' ),
    ( '' ),
    'SwSTEP 2.0',
    'SolidWorks 2012',
    '' );
FILE_SCHEMA (( 'AUTOMOTIVE_DESIGN' ));
ENDSEC;

DATA;
#1 = STYLED_ITEM ( 'NONE', ( #89 ), #48 ) ;
#2 = AXIS2_PLACEMENT_3D ( 'NONE', #67, #68, #69 ) ;
#3 = LENGTH_MEASURE_WITH_UNIT ( LENGTH_MEASURE( 0.02539999999999999900 ), #76 );
#4 = VECTOR ( 'NONE', #60, 39.37007874015748100 ) ;
#5 = MECHANICAL_DESIGN_GEOMETRIC_PRESENTATION_REPRESENTATION (  '', ( #9 ), #148 ) ;
#6 = PRESENTATION_LAYER_ASSIGNMENT (  '', '', ( #9 ) ) ;
#7 = LENGTH_MEASURE_WITH_UNIT ( LENGTH_MEASURE( 0.02539999999999999900 ), #80 );
#8 = VECTOR ( 'NONE', #64, 39.37007874015748100 ) ;
#9 = STYLED_ITEM ( 'NONE', ( #75 ), #42 ) ;
#10 = EDGE_CURVE ( 'NONE', #23, #20, #33, .T. ) ;
#11 = PRODUCT_DEFINITION_FORMATION_WITH_SPECIFIED_SOURCE ( 'ANY', '', #52, .NOT_KNOWN. ) ;
#12 = AXIS2_PLACEMENT_3D ( 'NONE', #94, #53, #54 ) ;
#13 = PRESENTATION_LAYER_ASSIGNMENT (  '', '', ( #1 ) ) ;
#14 = MECHANICAL_DESIGN_GEOMETRIC_PRESENTATION_REPRESENTATION (  '', ( #1 ), #147 ) ;
#15 = LENGTH_MEASURE_WITH_UNIT ( LENGTH_MEASURE( 0.02539999999999999900 ), #90 );
#16 = EDGE_LOOP ( 'NONE', ( #100, #24, #101, #105 ) ) ;
#17 = EDGE_LOOP ( 'NONE', ( #95, #96, #99, #103 ) ) ;
#18 = EDGE_LOOP ( 'NONE', ( #97, #98 ) ) ;
#19 = EDGE_LOOP ( 'NONE', ( #102, #104 ) ) ;
#20 = VERTEX_POINT ( 'NONE', #110 ) ;
#21 = VERTEX_POINT ( 'NONE', #111 ) ;
#22 = VERTEX_POINT ( 'NONE', #112 ) ;
#23 = VERTEX_POINT ( 'NONE', #113 ) ;
#24 = ORIENTED_EDGE ( 'NONE', *, *, #40, .F. ) ;
#25 = EDGE_CURVE ( 'NONE', #22, #21, #26, .T. ) ;
#26 = CIRCLE ( 'NONE', #134, 0.06250000000000000000 ) ;
#27 = CIRCLE ( 'NONE', #135, 0.06250000000000000000 ) ;
#28 = CIRCLE ( 'NONE', #2, 0.06250000000000000000 ) ;
#29 = COLOUR_RGB ( '',0.5686274509803921400, 0.5686274509803921400, 0.5882352941176470800 ) ;
#30 = PRODUCT_DEFINITION ( 'UNKNOWN', '', #11, #44 ) ;
#31 = COLOUR_RGB ( '',0.5686274509803921400, 0.5686274509803921400, 0.5882352941176470800 ) ;
#32 = PRODUCT_RELATED_PRODUCT_CATEGORY ( 'part', '', ( #52 ) ) ;
#33 = CIRCLE ( 'NONE', #138, 0.06250000000000000000 ) ;
#34 = ADVANCED_FACE ( 'NONE', ( #144 ), #145, .T. ) ;
#35 = ADVANCED_FACE ( 'NONE', ( #146 ), #119, .F. ) ;
#36 = ADVANCED_FACE ( 'NONE', ( #140 ), #123, .T. ) ;
#37 = ADVANCED_FACE ( 'NONE', ( #136 ), #142, .T. ) ;
#38 = EDGE_CURVE ( 'NONE', #21, #20, #130, .T. ) ;
#39 = EDGE_CURVE ( 'NONE', #22, #23, #62, .T. ) ;
#40 = EDGE_CURVE ( 'NONE', #21, #22, #27, .T. ) ;
#41 = EDGE_CURVE ( 'NONE', #20, #23, #28, .T. ) ;
#42 = MANIFOLD_SOLID_BREP ( 'Boss-Extrude1', #139 ) ;
#43 = PRODUCT_DEFINITION_SHAPE ( 'NONE', 'NONE',  #30 ) ;
#44 = PRODUCT_DEFINITION_CONTEXT ( 'detailed design', #132, 'design' ) ;
#45 = UNCERTAINTY_MEASURE_WITH_UNIT (LENGTH_MEASURE( 1.000000000000000100E-005 ), #91, 'distance_accuracy_value', 'NONE');
#46 = UNCERTAINTY_MEASURE_WITH_UNIT (LENGTH_MEASURE( 1.000000000000000100E-005 ), #77, 'distance_accuracy_value', 'NONE');
#47 = UNCERTAINTY_MEASURE_WITH_UNIT (LENGTH_MEASURE( 1.000000000000000100E-005 ), #81, 'distance_accuracy_value', 'NONE');
#48 = ADVANCED_BREP_SHAPE_REPRESENTATION ( 'R125A-DM', ( #42, #12 ), #149 ) ;
#49 = DIMENSIONAL_EXPONENTS ( 1.000000000000000000, 0.0000000000000000000, 0.0000000000000000000, 0.0000000000000000000, 0.0000000000000000000, 0.0000000000000000000, 0.0000000000000000000 ) ;
#50 = DIMENSIONAL_EXPONENTS ( 1.000000000000000000, 0.0000000000000000000, 0.0000000000000000000, 0.0000000000000000000, 0.0000000000000000000, 0.0000000000000000000, 0.0000000000000000000 ) ;
#51 = DIMENSIONAL_EXPONENTS ( 1.000000000000000000, 0.0000000000000000000, 0.0000000000000000000, 0.0000000000000000000, 0.0000000000000000000, 0.0000000000000000000, 0.0000000000000000000 ) ;
#52 = PRODUCT ( 'R125A-DM', 'R125A-DM', '', ( #57 ) ) ;
#53 = DIRECTION ( 'NONE',  ( 0.0000000000000000000, 0.0000000000000000000, 1.000000000000000000 ) ) ;
#54 = DIRECTION ( 'NONE',  ( 1.000000000000000000, 0.0000000000000000000, 0.0000000000000000000 ) ) ;
#55 = SHAPE_DEFINITION_REPRESENTATION ( #43, #48 ) ;
#56 = APPLICATION_PROTOCOL_DEFINITION ( 'draft international standard', 'automotive_design', 1998, #131 ) ;
#57 = PRODUCT_CONTEXT ( 'NONE', #131, 'mechanical' ) ;
#58 = APPLICATION_PROTOCOL_DEFINITION ( 'draft international standard', 'automotive_design', 1998, #132 ) ;
#59 = CARTESIAN_POINT ( 'NONE',  ( 0.0000000000000000000, 0.1250000000000000000, -0.06250000000000000000 ) ) ;
#60 = DIRECTION ( 'NONE',  ( -0.0000000000000000000, -1.000000000000000000, -0.0000000000000000000 ) ) ;
#61 = CARTESIAN_POINT ( 'NONE',  ( 0.0000000000000000000, 0.1250000000000000000, 0.0000000000000000000 ) ) ;
#62 = LINE ( 'NONE', #63, #8 ) ;
#63 = CARTESIAN_POINT ( 'NONE',  ( 7.654042494670957500E-018, 0.1250000000000000000, 0.06250000000000000000 ) ) ;
#64 = DIRECTION ( 'NONE',  ( -0.0000000000000000000, -1.000000000000000000, -0.0000000000000000000 ) ) ;
#65 = DIRECTION ( 'NONE',  ( 0.0000000000000000000, 1.000000000000000000, 0.0000000000000000000 ) ) ;
#66 = DIRECTION ( 'NONE',  ( 0.0000000000000000000, 0.0000000000000000000, 1.000000000000000000 ) ) ;
#67 = CARTESIAN_POINT ( 'NONE',  ( 0.0000000000000000000, 0.0000000000000000000, 0.0000000000000000000 ) ) ;
#68 = DIRECTION ( 'NONE',  ( 0.0000000000000000000, 1.000000000000000000, 0.0000000000000000000 ) ) ;
#69 = DIRECTION ( 'NONE',  ( 0.0000000000000000000, 0.0000000000000000000, 1.000000000000000000 ) ) ;
#70 = FILL_AREA_STYLE_COLOUR ( '', #29 ) ;
#71 = FILL_AREA_STYLE ('',( #70 ) ) ;
#72 = SURFACE_STYLE_FILL_AREA ( #71 ) ;
#73 = SURFACE_SIDE_STYLE ('',( #72 ) ) ;
#74 = SURFACE_STYLE_USAGE ( .BOTH. , #73 ) ;
#75 = PRESENTATION_STYLE_ASSIGNMENT (( #74 ) ) ;
#76 =( LENGTH_UNIT ( ) NAMED_UNIT ( * ) SI_UNIT ( $, .METRE. ) );
#77 =( CONVERSION_BASED_UNIT ( 'INCH', #3 ) LENGTH_UNIT ( ) NAMED_UNIT ( #51 ) );
#78 =( NAMED_UNIT ( * ) PLANE_ANGLE_UNIT ( ) SI_UNIT ( $, .RADIAN. ) );
#79 =( NAMED_UNIT ( * ) SI_UNIT ( $, .STERADIAN. ) SOLID_ANGLE_UNIT ( ) );
#80 =( LENGTH_UNIT ( ) NAMED_UNIT ( * ) SI_UNIT ( $, .METRE. ) );
#81 =( CONVERSION_BASED_UNIT ( 'INCH', #7 ) LENGTH_UNIT ( ) NAMED_UNIT ( #50 ) );
#82 =( NAMED_UNIT ( * ) PLANE_ANGLE_UNIT ( ) SI_UNIT ( $, .RADIAN. ) );
#83 =( NAMED_UNIT ( * ) SI_UNIT ( $, .STERADIAN. ) SOLID_ANGLE_UNIT ( ) );
#84 = FILL_AREA_STYLE_COLOUR ( '', #31 ) ;
#85 = FILL_AREA_STYLE ('',( #84 ) ) ;
#86 = SURFACE_STYLE_FILL_AREA ( #85 ) ;
#87 = SURFACE_SIDE_STYLE ('',( #86 ) ) ;
#88 = SURFACE_STYLE_USAGE ( .BOTH. , #87 ) ;
#89 = PRESENTATION_STYLE_ASSIGNMENT (( #88 ) ) ;
#90 =( LENGTH_UNIT ( ) NAMED_UNIT ( * ) SI_UNIT ( $, .METRE. ) );
#91 =( CONVERSION_BASED_UNIT ( 'INCH', #15 ) LENGTH_UNIT ( ) NAMED_UNIT ( #49 ) );
#92 =( NAMED_UNIT ( * ) PLANE_ANGLE_UNIT ( ) SI_UNIT ( $, .RADIAN. ) );
#93 =( NAMED_UNIT ( * ) SI_UNIT ( $, .STERADIAN. ) SOLID_ANGLE_UNIT ( ) );
#94 = CARTESIAN_POINT ( 'NONE',  ( 0.0000000000000000000, 0.0000000000000000000, 0.0000000000000000000 ) ) ;
#95 = ORIENTED_EDGE ( 'NONE', *, *, #25, .F. ) ;
#96 = ORIENTED_EDGE ( 'NONE', *, *, #39, .T. ) ;
#97 = ORIENTED_EDGE ( 'NONE', *, *, #40, .T. ) ;
#98 = ORIENTED_EDGE ( 'NONE', *, *, #25, .T. ) ;
#99 = ORIENTED_EDGE ( 'NONE', *, *, #10, .T. ) ;
#100 = ORIENTED_EDGE ( 'NONE', *, *, #39, .F. ) ;
#101 = ORIENTED_EDGE ( 'NONE', *, *, #38, .T. ) ;
#102 = ORIENTED_EDGE ( 'NONE', *, *, #41, .F. ) ;
#103 = ORIENTED_EDGE ( 'NONE', *, *, #38, .F. ) ;
#104 = ORIENTED_EDGE ( 'NONE', *, *, #10, .F. ) ;
#105 = ORIENTED_EDGE ( 'NONE', *, *, #41, .T. ) ;
#106 = CARTESIAN_POINT ( 'NONE',  ( 0.0000000000000000000, 0.0000000000000000000, 0.0000000000000000000 ) ) ;
#107 = DIRECTION ( 'NONE',  ( 0.0000000000000000000, 1.000000000000000000, 0.0000000000000000000 ) ) ;
#108 = DIRECTION ( 'NONE',  ( 0.0000000000000000000, 0.0000000000000000000, 1.000000000000000000 ) ) ;
#109 = CARTESIAN_POINT ( 'NONE',  ( 0.0000000000000000000, 0.1250000000000000000, 0.0000000000000000000 ) ) ;
#110 = CARTESIAN_POINT ( 'NONE',  ( 0.0000000000000000000, 0.0000000000000000000, -0.06250000000000000000 ) ) ;
#111 = CARTESIAN_POINT ( 'NONE',  ( 0.0000000000000000000, 0.1250000000000000000, -0.06250000000000000000 ) ) ;
#112 = CARTESIAN_POINT ( 'NONE',  ( 7.654042494670957500E-018, 0.1250000000000000000, 0.06250000000000000000 ) ) ;
#113 = CARTESIAN_POINT ( 'NONE',  ( 7.654042494670957500E-018, 0.0000000000000000000, 0.06250000000000000000 ) ) ;
#114 = DIRECTION ( 'NONE',  ( 0.0000000000000000000, 1.000000000000000000, 0.0000000000000000000 ) ) ;
#115 = DIRECTION ( 'NONE',  ( 0.0000000000000000000, 0.0000000000000000000, 1.000000000000000000 ) ) ;
#116 = CARTESIAN_POINT ( 'NONE',  ( 0.0000000000000000000, 0.1250000000000000000, 0.0000000000000000000 ) ) ;
#117 = DIRECTION ( 'NONE',  ( -0.0000000000000000000, -1.000000000000000000, -0.0000000000000000000 ) ) ;
#118 = DIRECTION ( 'NONE',  ( 0.0000000000000000000, 0.0000000000000000000, -1.000000000000000000 ) ) ;
#119 = PLANE ( 'NONE',  #133 ) ;
#120 = CARTESIAN_POINT ( 'NONE',  ( 0.0000000000000000000, 0.0000000000000000000, 0.0000000000000000000 ) ) ;
#121 = DIRECTION ( 'NONE',  ( 0.0000000000000000000, 1.000000000000000000, 0.0000000000000000000 ) ) ;
#122 = DIRECTION ( 'NONE',  ( 0.0000000000000000000, -0.0000000000000000000, 1.000000000000000000 ) ) ;
#123 = PLANE ( 'NONE',  #141 ) ;
#124 = CARTESIAN_POINT ( 'NONE',  ( 0.0000000000000000000, 0.1250000000000000000, 0.0000000000000000000 ) ) ;
#125 = DIRECTION ( 'NONE',  ( 0.0000000000000000000, 1.000000000000000000, 0.0000000000000000000 ) ) ;
#126 = DIRECTION ( 'NONE',  ( 0.0000000000000000000, -0.0000000000000000000, 1.000000000000000000 ) ) ;
#127 = CARTESIAN_POINT ( 'NONE',  ( 0.0000000000000000000, 0.1250000000000000000, 0.0000000000000000000 ) ) ;
#128 = DIRECTION ( 'NONE',  ( -0.0000000000000000000, -1.000000000000000000, -0.0000000000000000000 ) ) ;
#129 = DIRECTION ( 'NONE',  ( 0.0000000000000000000, 0.0000000000000000000, -1.000000000000000000 ) ) ;
#130 = LINE ( 'NONE', #59, #4 ) ;
#131 = APPLICATION_CONTEXT ( 'automotive_design' ) ;
#132 = APPLICATION_CONTEXT ( 'automotive_design' ) ;
#133 = AXIS2_PLACEMENT_3D ( 'NONE', #120, #121, #122 ) ;
#134 = AXIS2_PLACEMENT_3D ( 'NONE', #109, #114, #115 ) ;
#135 = AXIS2_PLACEMENT_3D ( 'NONE', #61, #65, #66 ) ;
#136 = FACE_OUTER_BOUND ( 'NONE', #16, .T. ) ;
#137 = AXIS2_PLACEMENT_3D ( 'NONE', #116, #117, #118 ) ;
#138 = AXIS2_PLACEMENT_3D ( 'NONE', #106, #107, #108 ) ;
#139 = CLOSED_SHELL ( 'NONE', ( #34, #37, #36, #35 ) ) ;
#140 = FACE_OUTER_BOUND ( 'NONE', #18, .T. ) ;
#141 = AXIS2_PLACEMENT_3D ( 'NONE', #124, #125, #126 ) ;
#142 = CYLINDRICAL_SURFACE ( 'NONE', #143, 0.06250000000000000000 ) ;
#143 = AXIS2_PLACEMENT_3D ( 'NONE', #127, #128, #129 ) ;
#144 = FACE_OUTER_BOUND ( 'NONE', #17, .T. ) ;
#145 = CYLINDRICAL_SURFACE ( 'NONE', #137, 0.06250000000000000000 ) ;
#146 = FACE_OUTER_BOUND ( 'NONE', #19, .T. ) ;
#147 =( GEOMETRIC_REPRESENTATION_CONTEXT ( 3 ) GLOBAL_UNCERTAINTY_ASSIGNED_CONTEXT ( ( #45 ) ) GLOBAL_UNIT_ASSIGNED_CONTEXT ( ( #91, #92, #93 ) ) REPRESENTATION_CONTEXT ( 'NONE', 'WORKASPACE' ) );
#148 =( GEOMETRIC_REPRESENTATION_CONTEXT ( 3 ) GLOBAL_UNCERTAINTY_ASSIGNED_CONTEXT ( ( #46 ) ) GLOBAL_UNIT_ASSIGNED_CONTEXT ( ( #77, #78, #79 ) ) REPRESENTATION_CONTEXT ( 'NONE', 'WORKASPACE' ) );
#149 =( GEOMETRIC_REPRESENTATION_CONTEXT ( 3 ) GLOBAL_UNCERTAINTY_ASSIGNED_CONTEXT ( ( #47 ) ) GLOBAL_UNIT_ASSIGNED_CONTEXT ( ( #81, #82, #83 ) ) REPRESENTATION_CONTEXT ( 'NONE', 'WORKASPACE' ) );
ENDSEC;
END-ISO-10303-21;
