ISO-10303-21;
HEADER;
FILE_DESCRIPTION (( 'STEP AP214' ),
    '1' );
FILE_NAME ('R125A.step',
    '2012-04-20T21:04:33',
    ( '' ),
    ( '' ),
    'SwSTEP 2.0',
    'SolidWorks 2012',
    '' );
FILE_SCHEMA (( 'AUTOMOTIVE_DESIGN' ));
ENDSEC;

DATA;
#1 = UNCERTAINTY_MEASURE_WITH_UNIT (LENGTH_MEASURE( 1.000000000000000100E-005 ), #73, 'distance_accuracy_value', 'NONE');
#2 = ADVANCED_BREP_SHAPE_REPRESENTATION ( 'R125A', ( #49, #20 ), #11 ) ;
#3 = UNCERTAINTY_MEASURE_WITH_UNIT (LENGTH_MEASURE( 1.000000000000000100E-005 ), #121, 'distance_accuracy_value', 'NONE');
#4 = UNCERTAINTY_MEASURE_WITH_UNIT (LENGTH_MEASURE( 1.000000000000000100E-005 ), #131, 'distance_accuracy_value', 'NONE');
#5 = LENGTH_MEASURE_WITH_UNIT ( LENGTH_MEASURE( 0.02539999999999999900 ), #72 );
#6 = MECHANICAL_DESIGN_GEOMETRIC_PRESENTATION_REPRESENTATION (  '', ( #8 ), #13 ) ;
#7 = PRESENTATION_LAYER_ASSIGNMENT (  '', '', ( #8 ) ) ;
#8 = STYLED_ITEM ( 'NONE', ( #71 ), #49 ) ;
#9 = FACE_OUTER_BOUND ( 'NONE', #43, .T. ) ;
#10 = AXIS2_PLACEMENT_3D ( 'NONE', #119, #61, #62 ) ;
#11 =( GEOMETRIC_REPRESENTATION_CONTEXT ( 3 ) GLOBAL_UNCERTAINTY_ASSIGNED_CONTEXT ( ( #3 ) ) GLOBAL_UNIT_ASSIGNED_CONTEXT ( ( #121, #122, #123 ) ) REPRESENTATION_CONTEXT ( 'NONE', 'WORKASPACE' ) );
#12 =( GEOMETRIC_REPRESENTATION_CONTEXT ( 3 ) GLOBAL_UNCERTAINTY_ASSIGNED_CONTEXT ( ( #4 ) ) GLOBAL_UNIT_ASSIGNED_CONTEXT ( ( #131, #132, #133 ) ) REPRESENTATION_CONTEXT ( 'NONE', 'WORKASPACE' ) );
#13 =( GEOMETRIC_REPRESENTATION_CONTEXT ( 3 ) GLOBAL_UNCERTAINTY_ASSIGNED_CONTEXT ( ( #1 ) ) GLOBAL_UNIT_ASSIGNED_CONTEXT ( ( #73, #74, #75 ) ) REPRESENTATION_CONTEXT ( 'NONE', 'WORKASPACE' ) );
#14 = PRODUCT_DEFINITION_FORMATION_WITH_SPECIFIED_SOURCE ( 'ANY', '', #53, .NOT_KNOWN. ) ;
#15 = PRESENTATION_LAYER_ASSIGNMENT (  '', '', ( #16 ) ) ;
#16 = STYLED_ITEM ( 'NONE', ( #129 ), #2 ) ;
#17 = MECHANICAL_DESIGN_GEOMETRIC_PRESENTATION_REPRESENTATION (  '', ( #16 ), #12 ) ;
#18 = LENGTH_MEASURE_WITH_UNIT ( LENGTH_MEASURE( 0.02539999999999999900 ), #130 );
#19 = FACE_OUTER_BOUND ( 'NONE', #45, .T. ) ;
#20 = AXIS2_PLACEMENT_3D ( 'NONE', #54, #55, #56 ) ;
#21 = LENGTH_MEASURE_WITH_UNIT ( LENGTH_MEASURE( 0.02539999999999999900 ), #120 );
#22 = AXIS2_PLACEMENT_3D ( 'NONE', #81, #82, #83 ) ;
#23 = ADVANCED_FACE ( 'NONE', ( #143 ), #145, .T. ) ;
#24 = EDGE_CURVE ( 'NONE', #93, #94, #32, .T. ) ;
#25 = EDGE_CURVE ( 'NONE', #96, #95, #33, .T. ) ;
#26 = EDGE_CURVE ( 'NONE', #95, #93, #107, .T. ) ;
#27 = EDGE_CURVE ( 'NONE', #94, #93, #34, .T. ) ;
#28 = EDGE_CURVE ( 'NONE', #96, #94, #113, .T. ) ;
#29 = EDGE_CURVE ( 'NONE', #95, #96, #35, .T. ) ;
#30 = ADVANCED_FACE ( 'NONE', ( #147 ), #118, .F. ) ;
#31 = ADVANCED_FACE ( 'NONE', ( #9 ), #141, .T. ) ;
#32 = CIRCLE ( 'NONE', #139, 0.06250000000000000000 ) ;
#33 = CIRCLE ( 'NONE', #137, 0.06250000000000000000 ) ;
#34 = CIRCLE ( 'NONE', #148, 0.06250000000000000000 ) ;
#35 = CIRCLE ( 'NONE', #140, 0.06250000000000000000 ) ;
#36 = PRODUCT_DEFINITION ( 'UNKNOWN', '', #14, #47 ) ;
#37 = COLOUR_RGB ( '',0.5686274509803921400, 0.5686274509803921400, 0.5882352941176470800 ) ;
#38 = COLOUR_RGB ( '',0.5686274509803921400, 0.5686274509803921400, 0.5882352941176470800 ) ;
#39 = PRODUCT_RELATED_PRODUCT_CATEGORY ( 'part', '', ( #53 ) ) ;
#40 = ORIENTED_EDGE ( 'NONE', *, *, #27, .F. ) ;
#41 = ORIENTED_EDGE ( 'NONE', *, *, #24, .F. ) ;
#42 = ORIENTED_EDGE ( 'NONE', *, *, #29, .T. ) ;
#43 = EDGE_LOOP ( 'NONE', ( #92, #88, #90, #86 ) ) ;
#44 = EDGE_LOOP ( 'NONE', ( #84, #91, #89, #85 ) ) ;
#45 = EDGE_LOOP ( 'NONE', ( #87, #42 ) ) ;
#46 = EDGE_LOOP ( 'NONE', ( #40, #41 ) ) ;
#47 = PRODUCT_DEFINITION_CONTEXT ( 'detailed design', #135, 'design' ) ;
#48 = PRODUCT_DEFINITION_SHAPE ( 'NONE', 'NONE',  #36 ) ;
#49 = MANIFOLD_SOLID_BREP ( 'Boss-Extrude1', #146 ) ;
#50 = DIMENSIONAL_EXPONENTS ( 1.000000000000000000, 0.0000000000000000000, 0.0000000000000000000, 0.0000000000000000000, 0.0000000000000000000, 0.0000000000000000000, 0.0000000000000000000 ) ;
#51 = DIMENSIONAL_EXPONENTS ( 1.000000000000000000, 0.0000000000000000000, 0.0000000000000000000, 0.0000000000000000000, 0.0000000000000000000, 0.0000000000000000000, 0.0000000000000000000 ) ;
#52 = DIMENSIONAL_EXPONENTS ( 1.000000000000000000, 0.0000000000000000000, 0.0000000000000000000, 0.0000000000000000000, 0.0000000000000000000, 0.0000000000000000000, 0.0000000000000000000 ) ;
#53 = PRODUCT ( 'R125A', 'R125A', '', ( #59 ) ) ;
#54 = CARTESIAN_POINT ( 'NONE',  ( 0.0000000000000000000, 0.0000000000000000000, 0.0000000000000000000 ) ) ;
#55 = DIRECTION ( 'NONE',  ( 0.0000000000000000000, 0.0000000000000000000, 1.000000000000000000 ) ) ;
#56 = DIRECTION ( 'NONE',  ( 1.000000000000000000, 0.0000000000000000000, 0.0000000000000000000 ) ) ;
#57 = SHAPE_DEFINITION_REPRESENTATION ( #48, #2 ) ;
#58 = APPLICATION_PROTOCOL_DEFINITION ( 'draft international standard', 'automotive_design', 1998, #136 ) ;
#59 = PRODUCT_CONTEXT ( 'NONE', #136, 'mechanical' ) ;
#60 = APPLICATION_PROTOCOL_DEFINITION ( 'draft international standard', 'automotive_design', 1998, #135 ) ;
#61 = DIRECTION ( 'NONE',  ( 0.0000000000000000000, 1.000000000000000000, 0.0000000000000000000 ) ) ;
#62 = DIRECTION ( 'NONE',  ( 0.0000000000000000000, -0.0000000000000000000, 1.000000000000000000 ) ) ;
#63 = CARTESIAN_POINT ( 'NONE',  ( 0.0000000000000000000, 0.1250000000000000000, 0.0000000000000000000 ) ) ;
#64 = DIRECTION ( 'NONE',  ( -0.0000000000000000000, -1.000000000000000000, -0.0000000000000000000 ) ) ;
#65 = DIRECTION ( 'NONE',  ( 0.0000000000000000000, 0.0000000000000000000, -1.000000000000000000 ) ) ;
#66 = FILL_AREA_STYLE_COLOUR ( '', #38 ) ;
#67 = FILL_AREA_STYLE ('',( #66 ) ) ;
#68 = SURFACE_STYLE_FILL_AREA ( #67 ) ;
#69 = SURFACE_SIDE_STYLE ('',( #68 ) ) ;
#70 = SURFACE_STYLE_USAGE ( .BOTH. , #69 ) ;
#71 = PRESENTATION_STYLE_ASSIGNMENT (( #70 ) ) ;
#72 =( LENGTH_UNIT ( ) NAMED_UNIT ( * ) SI_UNIT ( $, .METRE. ) );
#73 =( CONVERSION_BASED_UNIT ( 'INCH', #5 ) LENGTH_UNIT ( ) NAMED_UNIT ( #50 ) );
#74 =( NAMED_UNIT ( * ) PLANE_ANGLE_UNIT ( ) SI_UNIT ( $, .RADIAN. ) );
#75 =( NAMED_UNIT ( * ) SI_UNIT ( $, .STERADIAN. ) SOLID_ANGLE_UNIT ( ) );
#76 = CARTESIAN_POINT ( 'NONE',  ( 7.654042494670957500E-018, 0.0000000000000000000, 0.06250000000000000000 ) ) ;
#77 = CARTESIAN_POINT ( 'NONE',  ( 0.0000000000000000000, 0.0000000000000000000, -0.06250000000000000000 ) ) ;
#78 = CARTESIAN_POINT ( 'NONE',  ( 7.654042494670957500E-018, 0.1250000000000000000, 0.06250000000000000000 ) ) ;
#79 = CARTESIAN_POINT ( 'NONE',  ( 0.0000000000000000000, 0.1250000000000000000, -0.06250000000000000000 ) ) ;
#80 = PLANE ( 'NONE',  #22 ) ;
#81 = CARTESIAN_POINT ( 'NONE',  ( 0.0000000000000000000, 0.1250000000000000000, 0.0000000000000000000 ) ) ;
#82 = DIRECTION ( 'NONE',  ( 0.0000000000000000000, 1.000000000000000000, 0.0000000000000000000 ) ) ;
#83 = DIRECTION ( 'NONE',  ( 0.0000000000000000000, -0.0000000000000000000, 1.000000000000000000 ) ) ;
#84 = ORIENTED_EDGE ( 'NONE', *, *, #29, .F. ) ;
#85 = ORIENTED_EDGE ( 'NONE', *, *, #28, .F. ) ;
#86 = ORIENTED_EDGE ( 'NONE', *, *, #27, .T. ) ;
#87 = ORIENTED_EDGE ( 'NONE', *, *, #25, .T. ) ;
#88 = ORIENTED_EDGE ( 'NONE', *, *, #25, .F. ) ;
#89 = ORIENTED_EDGE ( 'NONE', *, *, #24, .T. ) ;
#90 = ORIENTED_EDGE ( 'NONE', *, *, #28, .T. ) ;
#91 = ORIENTED_EDGE ( 'NONE', *, *, #26, .T. ) ;
#92 = ORIENTED_EDGE ( 'NONE', *, *, #26, .F. ) ;
#93 = VERTEX_POINT ( 'NONE', #76 ) ;
#94 = VERTEX_POINT ( 'NONE', #77 ) ;
#95 = VERTEX_POINT ( 'NONE', #78 ) ;
#96 = VERTEX_POINT ( 'NONE', #79 ) ;
#97 = CARTESIAN_POINT ( 'NONE',  ( 0.0000000000000000000, 0.1250000000000000000, 0.0000000000000000000 ) ) ;
#98 = DIRECTION ( 'NONE',  ( -0.0000000000000000000, -1.000000000000000000, -0.0000000000000000000 ) ) ;
#99 = DIRECTION ( 'NONE',  ( 0.0000000000000000000, 0.0000000000000000000, -1.000000000000000000 ) ) ;
#100 = CARTESIAN_POINT ( 'NONE',  ( 0.0000000000000000000, 0.0000000000000000000, 0.0000000000000000000 ) ) ;
#101 = DIRECTION ( 'NONE',  ( 0.0000000000000000000, 1.000000000000000000, 0.0000000000000000000 ) ) ;
#102 = DIRECTION ( 'NONE',  ( 0.0000000000000000000, 0.0000000000000000000, 1.000000000000000000 ) ) ;
#103 = CARTESIAN_POINT ( 'NONE',  ( 0.0000000000000000000, 0.1250000000000000000, 0.0000000000000000000 ) ) ;
#104 = DIRECTION ( 'NONE',  ( 0.0000000000000000000, 1.000000000000000000, 0.0000000000000000000 ) ) ;
#105 = DIRECTION ( 'NONE',  ( 0.0000000000000000000, 0.0000000000000000000, 1.000000000000000000 ) ) ;
#106 = CARTESIAN_POINT ( 'NONE',  ( 0.0000000000000000000, 0.0000000000000000000, 0.0000000000000000000 ) ) ;
#107 = LINE ( 'NONE', #108, #144 ) ;
#108 = CARTESIAN_POINT ( 'NONE',  ( 7.654042494670957500E-018, 0.1250000000000000000, 0.06250000000000000000 ) ) ;
#109 = DIRECTION ( 'NONE',  ( -0.0000000000000000000, -1.000000000000000000, -0.0000000000000000000 ) ) ;
#110 = DIRECTION ( 'NONE',  ( 0.0000000000000000000, 1.000000000000000000, 0.0000000000000000000 ) ) ;
#111 = DIRECTION ( 'NONE',  ( 0.0000000000000000000, 0.0000000000000000000, 1.000000000000000000 ) ) ;
#112 = CARTESIAN_POINT ( 'NONE',  ( 0.0000000000000000000, 0.1250000000000000000, 0.0000000000000000000 ) ) ;
#113 = LINE ( 'NONE', #114, #142 ) ;
#114 = CARTESIAN_POINT ( 'NONE',  ( 0.0000000000000000000, 0.1250000000000000000, -0.06250000000000000000 ) ) ;
#115 = DIRECTION ( 'NONE',  ( -0.0000000000000000000, -1.000000000000000000, -0.0000000000000000000 ) ) ;
#116 = DIRECTION ( 'NONE',  ( 0.0000000000000000000, 1.000000000000000000, 0.0000000000000000000 ) ) ;
#117 = DIRECTION ( 'NONE',  ( 0.0000000000000000000, 0.0000000000000000000, 1.000000000000000000 ) ) ;
#118 = PLANE ( 'NONE',  #10 ) ;
#119 = CARTESIAN_POINT ( 'NONE',  ( 0.0000000000000000000, 0.0000000000000000000, 0.0000000000000000000 ) ) ;
#120 =( LENGTH_UNIT ( ) NAMED_UNIT ( * ) SI_UNIT ( $, .METRE. ) );
#121 =( CONVERSION_BASED_UNIT ( 'INCH', #21 ) LENGTH_UNIT ( ) NAMED_UNIT ( #51 ) );
#122 =( NAMED_UNIT ( * ) PLANE_ANGLE_UNIT ( ) SI_UNIT ( $, .RADIAN. ) );
#123 =( NAMED_UNIT ( * ) SI_UNIT ( $, .STERADIAN. ) SOLID_ANGLE_UNIT ( ) );
#124 = FILL_AREA_STYLE_COLOUR ( '', #37 ) ;
#125 = FILL_AREA_STYLE ('',( #124 ) ) ;
#126 = SURFACE_STYLE_FILL_AREA ( #125 ) ;
#127 = SURFACE_SIDE_STYLE ('',( #126 ) ) ;
#128 = SURFACE_STYLE_USAGE ( .BOTH. , #127 ) ;
#129 = PRESENTATION_STYLE_ASSIGNMENT (( #128 ) ) ;
#130 =( LENGTH_UNIT ( ) NAMED_UNIT ( * ) SI_UNIT ( $, .METRE. ) );
#131 =( CONVERSION_BASED_UNIT ( 'INCH', #18 ) LENGTH_UNIT ( ) NAMED_UNIT ( #52 ) );
#132 =( NAMED_UNIT ( * ) PLANE_ANGLE_UNIT ( ) SI_UNIT ( $, .RADIAN. ) );
#133 =( NAMED_UNIT ( * ) SI_UNIT ( $, .STERADIAN. ) SOLID_ANGLE_UNIT ( ) );
#134 = ADVANCED_FACE ( 'NONE', ( #19 ), #80, .T. ) ;
#135 = APPLICATION_CONTEXT ( 'automotive_design' ) ;
#136 = APPLICATION_CONTEXT ( 'automotive_design' ) ;
#137 = AXIS2_PLACEMENT_3D ( 'NONE', #103, #104, #105 ) ;
#138 = AXIS2_PLACEMENT_3D ( 'NONE', #97, #98, #99 ) ;
#139 = AXIS2_PLACEMENT_3D ( 'NONE', #100, #101, #102 ) ;
#140 = AXIS2_PLACEMENT_3D ( 'NONE', #112, #116, #117 ) ;
#141 = CYLINDRICAL_SURFACE ( 'NONE', #149, 0.06250000000000000000 ) ;
#142 = VECTOR ( 'NONE', #115, 39.37007874015748100 ) ;
#143 = FACE_OUTER_BOUND ( 'NONE', #44, .T. ) ;
#144 = VECTOR ( 'NONE', #109, 39.37007874015748100 ) ;
#145 = CYLINDRICAL_SURFACE ( 'NONE', #138, 0.06250000000000000000 ) ;
#146 = CLOSED_SHELL ( 'NONE', ( #23, #31, #134, #30 ) ) ;
#147 = FACE_OUTER_BOUND ( 'NONE', #46, .T. ) ;
#148 = AXIS2_PLACEMENT_3D ( 'NONE', #106, #110, #111 ) ;
#149 = AXIS2_PLACEMENT_3D ( 'NONE', #63, #64, #65 ) ;
ENDSEC;
END-ISO-10303-21;
