ISO-10303-21;
HEADER;
FILE_DESCRIPTION (( 'STEP AP214' ),
    '1' );
FILE_NAME ('R156A1.step',
    '2012-04-20T21:04:37',
    ( '' ),
    ( '' ),
    'SwSTEP 2.0',
    'SolidWorks 2012',
    '' );
FILE_SCHEMA (( 'AUTOMOTIVE_DESIGN' ));
ENDSEC;

DATA;
#1 = VECTOR ( 'NONE', #118, 39.37007874015748100 ) ;
#2 = VECTOR ( 'NONE', #124, 39.37007874015748100 ) ;
#3 = PRESENTATION_LAYER_ASSIGNMENT (  '', '', ( #9 ) ) ;
#4 = MECHANICAL_DESIGN_GEOMETRIC_PRESENTATION_REPRESENTATION (  '', ( #9 ), #12 ) ;
#5 = AXIS2_PLACEMENT_3D ( 'NONE', #125, #126, #127 ) ;
#6 = AXIS2_PLACEMENT_3D ( 'NONE', #115, #119, #120 ) ;
#7 = LENGTH_MEASURE_WITH_UNIT ( LENGTH_MEASURE( 0.02539999999999999900 ), #68 );
#8 = LENGTH_MEASURE_WITH_UNIT ( LENGTH_MEASURE( 0.02539999999999999900 ), #134 );
#9 = STYLED_ITEM ( 'NONE', ( #133 ), #43 ) ;
#10 = STYLED_ITEM ( 'NONE', ( #49 ), #47 ) ;
#11 =( GEOMETRIC_REPRESENTATION_CONTEXT ( 3 ) GLOBAL_UNCERTAINTY_ASSIGNED_CONTEXT ( ( #46 ) ) GLOBAL_UNIT_ASSIGNED_CONTEXT ( ( #69, #70, #71 ) ) REPRESENTATION_CONTEXT ( 'NONE', 'WORKASPACE' ) );
#12 =( GEOMETRIC_REPRESENTATION_CONTEXT ( 3 ) GLOBAL_UNCERTAINTY_ASSIGNED_CONTEXT ( ( #44 ) ) GLOBAL_UNIT_ASSIGNED_CONTEXT ( ( #61, #62, #63 ) ) REPRESENTATION_CONTEXT ( 'NONE', 'WORKASPACE' ) );
#13 =( GEOMETRIC_REPRESENTATION_CONTEXT ( 3 ) GLOBAL_UNCERTAINTY_ASSIGNED_CONTEXT ( ( #45 ) ) GLOBAL_UNIT_ASSIGNED_CONTEXT ( ( #51, #52, #53 ) ) REPRESENTATION_CONTEXT ( 'NONE', 'WORKASPACE' ) );
#14 = ADVANCED_FACE ( 'NONE', ( #138 ), #96, .T. ) ;
#15 = ADVANCED_FACE ( 'NONE', ( #149 ), #141, .T. ) ;
#16 = CIRCLE ( 'NONE', #142, 0.07812500000000000000 ) ;
#17 = CIRCLE ( 'NONE', #144, 0.07812500000000000000 ) ;
#18 = CIRCLE ( 'NONE', #146, 0.07812500000000000000 ) ;
#19 = CIRCLE ( 'NONE', #6, 0.07812500000000000000 ) ;
#20 = COLOUR_RGB ( '',0.5686274509803921400, 0.5686274509803921400, 0.5882352941176470800 ) ;
#21 = COLOUR_RGB ( '',0.5686274509803921400, 0.5686274509803921400, 0.5882352941176470800 ) ;
#22 = PRODUCT_RELATED_PRODUCT_CATEGORY ( 'part', '', ( #27 ) ) ;
#23 = PRODUCT_DEFINITION ( 'UNKNOWN', '', #37, #42 ) ;
#24 = DIMENSIONAL_EXPONENTS ( 1.000000000000000000, 0.0000000000000000000, 0.0000000000000000000, 0.0000000000000000000, 0.0000000000000000000, 0.0000000000000000000, 0.0000000000000000000 ) ;
#25 = DIMENSIONAL_EXPONENTS ( 1.000000000000000000, 0.0000000000000000000, 0.0000000000000000000, 0.0000000000000000000, 0.0000000000000000000, 0.0000000000000000000, 0.0000000000000000000 ) ;
#26 = DIMENSIONAL_EXPONENTS ( 1.000000000000000000, 0.0000000000000000000, 0.0000000000000000000, 0.0000000000000000000, 0.0000000000000000000, 0.0000000000000000000, 0.0000000000000000000 ) ;
#27 = PRODUCT ( 'R156A1', 'R156A1', '', ( #59 ) ) ;
#28 = ADVANCED_FACE ( 'NONE', ( #140 ), #147, .T. ) ;
#29 = EDGE_CURVE ( 'NONE', #92, #95, #16, .T. ) ;
#30 = EDGE_CURVE ( 'NONE', #94, #93, #17, .T. ) ;
#31 = EDGE_CURVE ( 'NONE', #95, #92, #18, .T. ) ;
#32 = EDGE_CURVE ( 'NONE', #94, #95, #116, .T. ) ;
#33 = EDGE_CURVE ( 'NONE', #93, #94, #19, .T. ) ;
#34 = EDGE_CURVE ( 'NONE', #93, #92, #122, .T. ) ;
#35 = ADVANCED_FACE ( 'NONE', ( #143 ), #121, .F. ) ;
#36 = PRESENTATION_LAYER_ASSIGNMENT (  '', '', ( #10 ) ) ;
#37 = PRODUCT_DEFINITION_FORMATION_WITH_SPECIFIED_SOURCE ( 'ANY', '', #27, .NOT_KNOWN. ) ;
#38 = AXIS2_PLACEMENT_3D ( 'NONE', #54, #55, #56 ) ;
#39 = LENGTH_MEASURE_WITH_UNIT ( LENGTH_MEASURE( 0.02539999999999999900 ), #50 );
#40 = MECHANICAL_DESIGN_GEOMETRIC_PRESENTATION_REPRESENTATION (  '', ( #10 ), #13 ) ;
#41 = PRODUCT_DEFINITION_SHAPE ( 'NONE', 'NONE',  #23 ) ;
#42 = PRODUCT_DEFINITION_CONTEXT ( 'detailed design', #136, 'design' ) ;
#43 = MANIFOLD_SOLID_BREP ( 'Boss-Extrude1', #145 ) ;
#44 = UNCERTAINTY_MEASURE_WITH_UNIT (LENGTH_MEASURE( 1.000000000000000100E-005 ), #61, 'distance_accuracy_value', 'NONE');
#45 = UNCERTAINTY_MEASURE_WITH_UNIT (LENGTH_MEASURE( 1.000000000000000100E-005 ), #51, 'distance_accuracy_value', 'NONE');
#46 = UNCERTAINTY_MEASURE_WITH_UNIT (LENGTH_MEASURE( 1.000000000000000100E-005 ), #69, 'distance_accuracy_value', 'NONE');
#47 = ADVANCED_BREP_SHAPE_REPRESENTATION ( 'R156A1', ( #43, #38 ), #11 ) ;
#48 = SURFACE_STYLE_USAGE ( .BOTH. , #75 ) ;
#49 = PRESENTATION_STYLE_ASSIGNMENT (( #48 ) ) ;
#50 =( LENGTH_UNIT ( ) NAMED_UNIT ( * ) SI_UNIT ( $, .METRE. ) );
#51 =( CONVERSION_BASED_UNIT ( 'INCH', #39 ) LENGTH_UNIT ( ) NAMED_UNIT ( #26 ) );
#52 =( NAMED_UNIT ( * ) PLANE_ANGLE_UNIT ( ) SI_UNIT ( $, .RADIAN. ) );
#53 =( NAMED_UNIT ( * ) SI_UNIT ( $, .STERADIAN. ) SOLID_ANGLE_UNIT ( ) );
#54 = CARTESIAN_POINT ( 'NONE',  ( 0.0000000000000000000, 0.0000000000000000000, 0.0000000000000000000 ) ) ;
#55 = DIRECTION ( 'NONE',  ( 0.0000000000000000000, 0.0000000000000000000, 1.000000000000000000 ) ) ;
#56 = DIRECTION ( 'NONE',  ( 1.000000000000000000, 0.0000000000000000000, 0.0000000000000000000 ) ) ;
#57 = SHAPE_DEFINITION_REPRESENTATION ( #41, #47 ) ;
#58 = APPLICATION_PROTOCOL_DEFINITION ( 'draft international standard', 'automotive_design', 1998, #135 ) ;
#59 = PRODUCT_CONTEXT ( 'NONE', #135, 'mechanical' ) ;
#60 = APPLICATION_PROTOCOL_DEFINITION ( 'draft international standard', 'automotive_design', 1998, #136 ) ;
#61 =( CONVERSION_BASED_UNIT ( 'INCH', #8 ) LENGTH_UNIT ( ) NAMED_UNIT ( #25 ) );
#62 =( NAMED_UNIT ( * ) PLANE_ANGLE_UNIT ( ) SI_UNIT ( $, .RADIAN. ) );
#63 =( NAMED_UNIT ( * ) SI_UNIT ( $, .STERADIAN. ) SOLID_ANGLE_UNIT ( ) );
#64 = CARTESIAN_POINT ( 'NONE',  ( 0.0000000000000000000, 0.0000000000000000000, -0.07812500000000000000 ) ) ;
#65 = CARTESIAN_POINT ( 'NONE',  ( 0.0000000000000000000, 0.1562500000000000000, -0.07812500000000000000 ) ) ;
#66 = CARTESIAN_POINT ( 'NONE',  ( 9.567553118338697300E-018, 0.1562500000000000000, 0.07812500000000000000 ) ) ;
#67 = CARTESIAN_POINT ( 'NONE',  ( 9.567553118338697300E-018, 0.0000000000000000000, 0.07812500000000000000 ) ) ;
#68 =( LENGTH_UNIT ( ) NAMED_UNIT ( * ) SI_UNIT ( $, .METRE. ) );
#69 =( CONVERSION_BASED_UNIT ( 'INCH', #7 ) LENGTH_UNIT ( ) NAMED_UNIT ( #24 ) );
#70 =( NAMED_UNIT ( * ) PLANE_ANGLE_UNIT ( ) SI_UNIT ( $, .RADIAN. ) );
#71 =( NAMED_UNIT ( * ) SI_UNIT ( $, .STERADIAN. ) SOLID_ANGLE_UNIT ( ) );
#72 = FILL_AREA_STYLE_COLOUR ( '', #21 ) ;
#73 = FILL_AREA_STYLE ('',( #72 ) ) ;
#74 = SURFACE_STYLE_FILL_AREA ( #73 ) ;
#75 = SURFACE_SIDE_STYLE ('',( #74 ) ) ;
#76 = ORIENTED_EDGE ( 'NONE', *, *, #30, .T. ) ;
#77 = ORIENTED_EDGE ( 'NONE', *, *, #29, .F. ) ;
#78 = ORIENTED_EDGE ( 'NONE', *, *, #31, .F. ) ;
#79 = ORIENTED_EDGE ( 'NONE', *, *, #32, .F. ) ;
#80 = ORIENTED_EDGE ( 'NONE', *, *, #34, .F. ) ;
#81 = ORIENTED_EDGE ( 'NONE', *, *, #30, .F. ) ;
#82 = ORIENTED_EDGE ( 'NONE', *, *, #29, .T. ) ;
#83 = ORIENTED_EDGE ( 'NONE', *, *, #31, .T. ) ;
#84 = ORIENTED_EDGE ( 'NONE', *, *, #33, .T. ) ;
#85 = ORIENTED_EDGE ( 'NONE', *, *, #34, .T. ) ;
#86 = ORIENTED_EDGE ( 'NONE', *, *, #33, .F. ) ;
#87 = ORIENTED_EDGE ( 'NONE', *, *, #32, .T. ) ;
#88 = EDGE_LOOP ( 'NONE', ( #79, #86, #85, #82 ) ) ;
#89 = EDGE_LOOP ( 'NONE', ( #81, #87, #83, #80 ) ) ;
#90 = EDGE_LOOP ( 'NONE', ( #84, #76 ) ) ;
#91 = EDGE_LOOP ( 'NONE', ( #77, #78 ) ) ;
#92 = VERTEX_POINT ( 'NONE', #64 ) ;
#93 = VERTEX_POINT ( 'NONE', #65 ) ;
#94 = VERTEX_POINT ( 'NONE', #66 ) ;
#95 = VERTEX_POINT ( 'NONE', #67 ) ;
#96 = PLANE ( 'NONE',  #137 ) ;
#97 = CARTESIAN_POINT ( 'NONE',  ( 0.0000000000000000000, 0.1562500000000000000, 0.0000000000000000000 ) ) ;
#98 = DIRECTION ( 'NONE',  ( 0.0000000000000000000, 1.000000000000000000, 0.0000000000000000000 ) ) ;
#99 = DIRECTION ( 'NONE',  ( 0.0000000000000000000, -0.0000000000000000000, 1.000000000000000000 ) ) ;
#100 = CARTESIAN_POINT ( 'NONE',  ( 0.0000000000000000000, 0.1562500000000000000, 0.0000000000000000000 ) ) ;
#101 = DIRECTION ( 'NONE',  ( -0.0000000000000000000, -1.000000000000000000, -0.0000000000000000000 ) ) ;
#102 = DIRECTION ( 'NONE',  ( 0.0000000000000000000, 0.0000000000000000000, -1.000000000000000000 ) ) ;
#103 = CARTESIAN_POINT ( 'NONE',  ( 0.0000000000000000000, 0.1562500000000000000, 0.0000000000000000000 ) ) ;
#104 = DIRECTION ( 'NONE',  ( -0.0000000000000000000, -1.000000000000000000, -0.0000000000000000000 ) ) ;
#105 = DIRECTION ( 'NONE',  ( 0.0000000000000000000, 0.0000000000000000000, -1.000000000000000000 ) ) ;
#106 = CARTESIAN_POINT ( 'NONE',  ( 0.0000000000000000000, 0.0000000000000000000, 0.0000000000000000000 ) ) ;
#107 = DIRECTION ( 'NONE',  ( 0.0000000000000000000, 1.000000000000000000, 0.0000000000000000000 ) ) ;
#108 = DIRECTION ( 'NONE',  ( 0.0000000000000000000, 0.0000000000000000000, 1.000000000000000000 ) ) ;
#109 = CARTESIAN_POINT ( 'NONE',  ( 0.0000000000000000000, 0.1562500000000000000, 0.0000000000000000000 ) ) ;
#110 = DIRECTION ( 'NONE',  ( 0.0000000000000000000, 1.000000000000000000, 0.0000000000000000000 ) ) ;
#111 = DIRECTION ( 'NONE',  ( 0.0000000000000000000, 0.0000000000000000000, 1.000000000000000000 ) ) ;
#112 = CARTESIAN_POINT ( 'NONE',  ( 0.0000000000000000000, 0.0000000000000000000, 0.0000000000000000000 ) ) ;
#113 = DIRECTION ( 'NONE',  ( 0.0000000000000000000, 1.000000000000000000, 0.0000000000000000000 ) ) ;
#114 = DIRECTION ( 'NONE',  ( 0.0000000000000000000, 0.0000000000000000000, 1.000000000000000000 ) ) ;
#115 = CARTESIAN_POINT ( 'NONE',  ( 0.0000000000000000000, 0.1562500000000000000, 0.0000000000000000000 ) ) ;
#116 = LINE ( 'NONE', #117, #1 ) ;
#117 = CARTESIAN_POINT ( 'NONE',  ( 9.567553118338697300E-018, 0.1562500000000000000, 0.07812500000000000000 ) ) ;
#118 = DIRECTION ( 'NONE',  ( -0.0000000000000000000, -1.000000000000000000, -0.0000000000000000000 ) ) ;
#119 = DIRECTION ( 'NONE',  ( 0.0000000000000000000, 1.000000000000000000, 0.0000000000000000000 ) ) ;
#120 = DIRECTION ( 'NONE',  ( 0.0000000000000000000, 0.0000000000000000000, 1.000000000000000000 ) ) ;
#121 = PLANE ( 'NONE',  #5 ) ;
#122 = LINE ( 'NONE', #123, #2 ) ;
#123 = CARTESIAN_POINT ( 'NONE',  ( 0.0000000000000000000, 0.1562500000000000000, -0.07812500000000000000 ) ) ;
#124 = DIRECTION ( 'NONE',  ( -0.0000000000000000000, -1.000000000000000000, -0.0000000000000000000 ) ) ;
#125 = CARTESIAN_POINT ( 'NONE',  ( 0.0000000000000000000, 0.0000000000000000000, 0.0000000000000000000 ) ) ;
#126 = DIRECTION ( 'NONE',  ( 0.0000000000000000000, 1.000000000000000000, 0.0000000000000000000 ) ) ;
#127 = DIRECTION ( 'NONE',  ( 0.0000000000000000000, -0.0000000000000000000, 1.000000000000000000 ) ) ;
#128 = FILL_AREA_STYLE_COLOUR ( '', #20 ) ;
#129 = FILL_AREA_STYLE ('',( #128 ) ) ;
#130 = SURFACE_STYLE_FILL_AREA ( #129 ) ;
#131 = SURFACE_SIDE_STYLE ('',( #130 ) ) ;
#132 = SURFACE_STYLE_USAGE ( .BOTH. , #131 ) ;
#133 = PRESENTATION_STYLE_ASSIGNMENT (( #132 ) ) ;
#134 =( LENGTH_UNIT ( ) NAMED_UNIT ( * ) SI_UNIT ( $, .METRE. ) );
#135 = APPLICATION_CONTEXT ( 'automotive_design' ) ;
#136 = APPLICATION_CONTEXT ( 'automotive_design' ) ;
#137 = AXIS2_PLACEMENT_3D ( 'NONE', #97, #98, #99 ) ;
#138 = FACE_OUTER_BOUND ( 'NONE', #90, .T. ) ;
#139 = AXIS2_PLACEMENT_3D ( 'NONE', #100, #101, #102 ) ;
#140 = FACE_OUTER_BOUND ( 'NONE', #89, .T. ) ;
#141 = CYLINDRICAL_SURFACE ( 'NONE', #139, 0.07812500000000000000 ) ;
#142 = AXIS2_PLACEMENT_3D ( 'NONE', #106, #107, #108 ) ;
#143 = FACE_OUTER_BOUND ( 'NONE', #91, .T. ) ;
#144 = AXIS2_PLACEMENT_3D ( 'NONE', #109, #110, #111 ) ;
#145 = CLOSED_SHELL ( 'NONE', ( #28, #15, #14, #35 ) ) ;
#146 = AXIS2_PLACEMENT_3D ( 'NONE', #112, #113, #114 ) ;
#147 = CYLINDRICAL_SURFACE ( 'NONE', #148, 0.07812500000000000000 ) ;
#148 = AXIS2_PLACEMENT_3D ( 'NONE', #103, #104, #105 ) ;
#149 = FACE_OUTER_BOUND ( 'NONE', #88, .T. ) ;
ENDSEC;
END-ISO-10303-21;
