ISO-10303-21;
HEADER;
FILE_DESCRIPTION (( 'STEP AP214' ),
    '1' );
FILE_NAME ('R160A-40H.step',
    '2012-04-20T21:04:39',
    ( '' ),
    ( '' ),
    'SwSTEP 2.0',
    'SolidWorks 2012',
    '' );
FILE_SCHEMA (( 'AUTOMOTIVE_DESIGN' ));
ENDSEC;

DATA;
#1 = UNCERTAINTY_MEASURE_WITH_UNIT (LENGTH_MEASURE( 1.000000000000000100E-005 ), #63, 'distance_accuracy_value', 'NONE');
#2 = UNCERTAINTY_MEASURE_WITH_UNIT (LENGTH_MEASURE( 1.000000000000000100E-005 ), #40, 'distance_accuracy_value', 'NONE');
#3 = ADVANCED_BREP_SHAPE_REPRESENTATION ( 'R160A-40H', ( #35, #31 ), #149 ) ;
#4 = UNCERTAINTY_MEASURE_WITH_UNIT (LENGTH_MEASURE( 1.000000000000000100E-005 ), #104, 'distance_accuracy_value', 'NONE');
#5 = AXIS2_PLACEMENT_3D ( 'NONE', #118, #119, #120 ) ;
#6 = FACE_OUTER_BOUND ( 'NONE', #72, .T. ) ;
#7 = AXIS2_PLACEMENT_3D ( 'NONE', #114, #115, #116 ) ;
#8 = AXIS2_PLACEMENT_3D ( 'NONE', #50, #51, #52 ) ;
#9 = AXIS2_PLACEMENT_3D ( 'NONE', #121, #122, #123 ) ;
#10 = FACE_OUTER_BOUND ( 'NONE', #73, .T. ) ;
#11 = CYLINDRICAL_SURFACE ( 'NONE', #9, 0.06250000000000000000 ) ;
#12 = FACE_OUTER_BOUND ( 'NONE', #74, .T. ) ;
#13 = EDGE_CURVE ( 'NONE', #76, #77, #124, .T. ) ;
#14 = COLOUR_RGB ( '',0.5686274509803921400, 0.5686274509803921400, 0.5882352941176470800 ) ;
#15 = CIRCLE ( 'NONE', #8, 0.06250000000000000000 ) ;
#16 = CIRCLE ( 'NONE', #34, 0.06250000000000000000 ) ;
#17 = COLOUR_RGB ( '',0.5686274509803921400, 0.5686274509803921400, 0.5882352941176470800 ) ;
#18 = CIRCLE ( 'NONE', #29, 0.06250000000000000000 ) ;
#19 = PRODUCT_DEFINITION ( 'UNKNOWN', '', #136, #36 ) ;
#20 = PRODUCT_RELATED_PRODUCT_CATEGORY ( 'part', '', ( #24 ) ) ;
#21 = DIMENSIONAL_EXPONENTS ( 1.000000000000000000, 0.0000000000000000000, 0.0000000000000000000, 0.0000000000000000000, 0.0000000000000000000, 0.0000000000000000000, 0.0000000000000000000 ) ;
#22 = DIMENSIONAL_EXPONENTS ( 1.000000000000000000, 0.0000000000000000000, 0.0000000000000000000, 0.0000000000000000000, 0.0000000000000000000, 0.0000000000000000000, 0.0000000000000000000 ) ;
#23 = DIMENSIONAL_EXPONENTS ( 1.000000000000000000, 0.0000000000000000000, 0.0000000000000000000, 0.0000000000000000000, 0.0000000000000000000, 0.0000000000000000000, 0.0000000000000000000 ) ;
#24 = PRODUCT ( 'R160A-40H', 'R160A-40H', '', ( #48 ) ) ;
#25 = EDGE_CURVE ( 'NONE', #76, #75, #95, .T. ) ;
#26 = STYLED_ITEM ( 'NONE', ( #38 ), #3 ) ;
#27 = LENGTH_MEASURE_WITH_UNIT ( LENGTH_MEASURE( 0.02539999999999999900 ), #39 );
#28 = LENGTH_MEASURE_WITH_UNIT ( LENGTH_MEASURE( 0.02539999999999999900 ), #62 );
#29 = AXIS2_PLACEMENT_3D ( 'NONE', #56, #60, #61 ) ;
#30 = VECTOR ( 'NONE', #59, 39.37007874015748100 ) ;
#31 = AXIS2_PLACEMENT_3D ( 'NONE', #43, #44, #45 ) ;
#32 = MECHANICAL_DESIGN_GEOMETRIC_PRESENTATION_REPRESENTATION (  '', ( #26 ), #147 ) ;
#33 = PRESENTATION_LAYER_ASSIGNMENT (  '', '', ( #26 ) ) ;
#34 = AXIS2_PLACEMENT_3D ( 'NONE', #53, #54, #55 ) ;
#35 = MANIFOLD_SOLID_BREP ( 'Boss-Extrude1', #144 ) ;
#36 = PRODUCT_DEFINITION_CONTEXT ( 'detailed design', #134, 'design' ) ;
#37 = PRODUCT_DEFINITION_SHAPE ( 'NONE', 'NONE',  #19 ) ;
#38 = PRESENTATION_STYLE_ASSIGNMENT (( #70 ) ) ;
#39 =( LENGTH_UNIT ( ) NAMED_UNIT ( * ) SI_UNIT ( $, .METRE. ) );
#40 =( CONVERSION_BASED_UNIT ( 'INCH', #27 ) LENGTH_UNIT ( ) NAMED_UNIT ( #22 ) );
#41 =( NAMED_UNIT ( * ) PLANE_ANGLE_UNIT ( ) SI_UNIT ( $, .RADIAN. ) );
#42 =( NAMED_UNIT ( * ) SI_UNIT ( $, .STERADIAN. ) SOLID_ANGLE_UNIT ( ) );
#43 = CARTESIAN_POINT ( 'NONE',  ( 0.0000000000000000000, 0.0000000000000000000, 0.0000000000000000000 ) ) ;
#44 = DIRECTION ( 'NONE',  ( 0.0000000000000000000, 0.0000000000000000000, 1.000000000000000000 ) ) ;
#45 = DIRECTION ( 'NONE',  ( 1.000000000000000000, 0.0000000000000000000, 0.0000000000000000000 ) ) ;
#46 = SHAPE_DEFINITION_REPRESENTATION ( #37, #3 ) ;
#47 = APPLICATION_PROTOCOL_DEFINITION ( 'draft international standard', 'automotive_design', 1998, #133 ) ;
#48 = PRODUCT_CONTEXT ( 'NONE', #133, 'mechanical' ) ;
#49 = APPLICATION_PROTOCOL_DEFINITION ( 'draft international standard', 'automotive_design', 1998, #134 ) ;
#50 = CARTESIAN_POINT ( 'NONE',  ( 0.0000000000000000000, 0.0000000000000000000, 0.0000000000000000000 ) ) ;
#51 = DIRECTION ( 'NONE',  ( 0.0000000000000000000, 1.000000000000000000, 0.0000000000000000000 ) ) ;
#52 = DIRECTION ( 'NONE',  ( 0.0000000000000000000, 0.0000000000000000000, 1.000000000000000000 ) ) ;
#53 = CARTESIAN_POINT ( 'NONE',  ( 0.0000000000000000000, 0.1600000000000000000, 0.0000000000000000000 ) ) ;
#54 = DIRECTION ( 'NONE',  ( 0.0000000000000000000, 1.000000000000000000, 0.0000000000000000000 ) ) ;
#55 = DIRECTION ( 'NONE',  ( 0.0000000000000000000, 0.0000000000000000000, 1.000000000000000000 ) ) ;
#56 = CARTESIAN_POINT ( 'NONE',  ( 0.0000000000000000000, 0.0000000000000000000, 0.0000000000000000000 ) ) ;
#57 = LINE ( 'NONE', #58, #30 ) ;
#58 = CARTESIAN_POINT ( 'NONE',  ( 7.654042494670957500E-018, 0.1600000000000000000, 0.06250000000000000000 ) ) ;
#59 = DIRECTION ( 'NONE',  ( -0.0000000000000000000, -1.000000000000000000, -0.0000000000000000000 ) ) ;
#60 = DIRECTION ( 'NONE',  ( 0.0000000000000000000, 1.000000000000000000, 0.0000000000000000000 ) ) ;
#61 = DIRECTION ( 'NONE',  ( 0.0000000000000000000, 0.0000000000000000000, 1.000000000000000000 ) ) ;
#62 =( LENGTH_UNIT ( ) NAMED_UNIT ( * ) SI_UNIT ( $, .METRE. ) );
#63 =( CONVERSION_BASED_UNIT ( 'INCH', #28 ) LENGTH_UNIT ( ) NAMED_UNIT ( #23 ) );
#64 =( NAMED_UNIT ( * ) PLANE_ANGLE_UNIT ( ) SI_UNIT ( $, .RADIAN. ) );
#65 =( NAMED_UNIT ( * ) SI_UNIT ( $, .STERADIAN. ) SOLID_ANGLE_UNIT ( ) );
#66 = FILL_AREA_STYLE_COLOUR ( '', #17 ) ;
#67 = FILL_AREA_STYLE ('',( #66 ) ) ;
#68 = SURFACE_STYLE_FILL_AREA ( #67 ) ;
#69 = SURFACE_SIDE_STYLE ('',( #68 ) ) ;
#70 = SURFACE_STYLE_USAGE ( .BOTH. , #69 ) ;
#71 = EDGE_LOOP ( 'NONE', ( #80, #82, #84, #88 ) ) ;
#72 = EDGE_LOOP ( 'NONE', ( #81, #87, #83, #79 ) ) ;
#73 = EDGE_LOOP ( 'NONE', ( #89, #85 ) ) ;
#74 = EDGE_LOOP ( 'NONE', ( #86, #90 ) ) ;
#75 = VERTEX_POINT ( 'NONE', #107 ) ;
#76 = VERTEX_POINT ( 'NONE', #108 ) ;
#77 = VERTEX_POINT ( 'NONE', #109 ) ;
#78 = VERTEX_POINT ( 'NONE', #110 ) ;
#79 = ORIENTED_EDGE ( 'NONE', *, *, #132, .T. ) ;
#80 = ORIENTED_EDGE ( 'NONE', *, *, #130, .F. ) ;
#81 = ORIENTED_EDGE ( 'NONE', *, *, #131, .F. ) ;
#82 = ORIENTED_EDGE ( 'NONE', *, *, #131, .T. ) ;
#83 = ORIENTED_EDGE ( 'NONE', *, *, #25, .T. ) ;
#84 = ORIENTED_EDGE ( 'NONE', *, *, #129, .T. ) ;
#85 = ORIENTED_EDGE ( 'NONE', *, *, #130, .T. ) ;
#86 = ORIENTED_EDGE ( 'NONE', *, *, #132, .F. ) ;
#87 = ORIENTED_EDGE ( 'NONE', *, *, #13, .F. ) ;
#88 = ORIENTED_EDGE ( 'NONE', *, *, #25, .F. ) ;
#89 = ORIENTED_EDGE ( 'NONE', *, *, #13, .T. ) ;
#90 = ORIENTED_EDGE ( 'NONE', *, *, #129, .F. ) ;
#91 = CARTESIAN_POINT ( 'NONE',  ( 0.0000000000000000000, 0.1600000000000000000, 0.0000000000000000000 ) ) ;
#92 = DIRECTION ( 'NONE',  ( 0.0000000000000000000, 1.000000000000000000, 0.0000000000000000000 ) ) ;
#93 = DIRECTION ( 'NONE',  ( 0.0000000000000000000, 0.0000000000000000000, 1.000000000000000000 ) ) ;
#94 = CARTESIAN_POINT ( 'NONE',  ( 0.0000000000000000000, 0.1600000000000000000, 0.0000000000000000000 ) ) ;
#95 = LINE ( 'NONE', #96, #143 ) ;
#96 = CARTESIAN_POINT ( 'NONE',  ( 0.0000000000000000000, 0.1600000000000000000, -0.06250000000000000000 ) ) ;
#97 = DIRECTION ( 'NONE',  ( -0.0000000000000000000, -1.000000000000000000, -0.0000000000000000000 ) ) ;
#98 = FILL_AREA_STYLE_COLOUR ( '', #14 ) ;
#99 = SURFACE_STYLE_FILL_AREA ( #135 ) ;
#100 = SURFACE_SIDE_STYLE ('',( #99 ) ) ;
#101 = SURFACE_STYLE_USAGE ( .BOTH. , #100 ) ;
#102 = PRESENTATION_STYLE_ASSIGNMENT (( #101 ) ) ;
#103 =( LENGTH_UNIT ( ) NAMED_UNIT ( * ) SI_UNIT ( $, .METRE. ) );
#104 =( CONVERSION_BASED_UNIT ( 'INCH', #137 ) LENGTH_UNIT ( ) NAMED_UNIT ( #21 ) );
#105 =( NAMED_UNIT ( * ) PLANE_ANGLE_UNIT ( ) SI_UNIT ( $, .RADIAN. ) );
#106 =( NAMED_UNIT ( * ) SI_UNIT ( $, .STERADIAN. ) SOLID_ANGLE_UNIT ( ) );
#107 = CARTESIAN_POINT ( 'NONE',  ( 0.0000000000000000000, 0.0000000000000000000, -0.06250000000000000000 ) ) ;
#108 = CARTESIAN_POINT ( 'NONE',  ( 0.0000000000000000000, 0.1600000000000000000, -0.06250000000000000000 ) ) ;
#109 = CARTESIAN_POINT ( 'NONE',  ( 7.654042494670957500E-018, 0.1600000000000000000, 0.06250000000000000000 ) ) ;
#110 = CARTESIAN_POINT ( 'NONE',  ( 7.654042494670957500E-018, 0.0000000000000000000, 0.06250000000000000000 ) ) ;
#111 = DIRECTION ( 'NONE',  ( -0.0000000000000000000, -1.000000000000000000, -0.0000000000000000000 ) ) ;
#112 = DIRECTION ( 'NONE',  ( 0.0000000000000000000, 0.0000000000000000000, -1.000000000000000000 ) ) ;
#113 = PLANE ( 'NONE',  #7 ) ;
#114 = CARTESIAN_POINT ( 'NONE',  ( 0.0000000000000000000, 0.0000000000000000000, 0.0000000000000000000 ) ) ;
#115 = DIRECTION ( 'NONE',  ( 0.0000000000000000000, 1.000000000000000000, 0.0000000000000000000 ) ) ;
#116 = DIRECTION ( 'NONE',  ( 0.0000000000000000000, -0.0000000000000000000, 1.000000000000000000 ) ) ;
#117 = PLANE ( 'NONE',  #5 ) ;
#118 = CARTESIAN_POINT ( 'NONE',  ( 0.0000000000000000000, 0.1600000000000000000, 0.0000000000000000000 ) ) ;
#119 = DIRECTION ( 'NONE',  ( 0.0000000000000000000, 1.000000000000000000, 0.0000000000000000000 ) ) ;
#120 = DIRECTION ( 'NONE',  ( 0.0000000000000000000, -0.0000000000000000000, 1.000000000000000000 ) ) ;
#121 = CARTESIAN_POINT ( 'NONE',  ( 0.0000000000000000000, 0.1600000000000000000, 0.0000000000000000000 ) ) ;
#122 = DIRECTION ( 'NONE',  ( -0.0000000000000000000, -1.000000000000000000, -0.0000000000000000000 ) ) ;
#123 = DIRECTION ( 'NONE',  ( 0.0000000000000000000, 0.0000000000000000000, -1.000000000000000000 ) ) ;
#124 = CIRCLE ( 'NONE', #139, 0.06250000000000000000 ) ;
#125 = ADVANCED_FACE ( 'NONE', ( #141 ), #140, .T. ) ;
#126 = ADVANCED_FACE ( 'NONE', ( #12 ), #113, .F. ) ;
#127 = ADVANCED_FACE ( 'NONE', ( #10 ), #117, .T. ) ;
#128 = ADVANCED_FACE ( 'NONE', ( #6 ), #11, .T. ) ;
#129 = EDGE_CURVE ( 'NONE', #78, #75, #15, .T. ) ;
#130 = EDGE_CURVE ( 'NONE', #77, #76, #16, .T. ) ;
#131 = EDGE_CURVE ( 'NONE', #77, #78, #57, .T. ) ;
#132 = EDGE_CURVE ( 'NONE', #75, #78, #18, .T. ) ;
#133 = APPLICATION_CONTEXT ( 'automotive_design' ) ;
#134 = APPLICATION_CONTEXT ( 'automotive_design' ) ;
#135 = FILL_AREA_STYLE ('',( #98 ) ) ;
#136 = PRODUCT_DEFINITION_FORMATION_WITH_SPECIFIED_SOURCE ( 'ANY', '', #24, .NOT_KNOWN. ) ;
#137 = LENGTH_MEASURE_WITH_UNIT ( LENGTH_MEASURE( 0.02539999999999999900 ), #103 );
#138 = PRESENTATION_LAYER_ASSIGNMENT (  '', '', ( #146 ) ) ;
#139 = AXIS2_PLACEMENT_3D ( 'NONE', #91, #92, #93 ) ;
#140 = CYLINDRICAL_SURFACE ( 'NONE', #145, 0.06250000000000000000 ) ;
#141 = FACE_OUTER_BOUND ( 'NONE', #71, .T. ) ;
#142 = MECHANICAL_DESIGN_GEOMETRIC_PRESENTATION_REPRESENTATION (  '', ( #146 ), #148 ) ;
#143 = VECTOR ( 'NONE', #97, 39.37007874015748100 ) ;
#144 = CLOSED_SHELL ( 'NONE', ( #125, #128, #127, #126 ) ) ;
#145 = AXIS2_PLACEMENT_3D ( 'NONE', #94, #111, #112 ) ;
#146 = STYLED_ITEM ( 'NONE', ( #102 ), #35 ) ;
#147 =( GEOMETRIC_REPRESENTATION_CONTEXT ( 3 ) GLOBAL_UNCERTAINTY_ASSIGNED_CONTEXT ( ( #2 ) ) GLOBAL_UNIT_ASSIGNED_CONTEXT ( ( #40, #41, #42 ) ) REPRESENTATION_CONTEXT ( 'NONE', 'WORKASPACE' ) );
#148 =( GEOMETRIC_REPRESENTATION_CONTEXT ( 3 ) GLOBAL_UNCERTAINTY_ASSIGNED_CONTEXT ( ( #4 ) ) GLOBAL_UNIT_ASSIGNED_CONTEXT ( ( #104, #105, #106 ) ) REPRESENTATION_CONTEXT ( 'NONE', 'WORKASPACE' ) );
#149 =( GEOMETRIC_REPRESENTATION_CONTEXT ( 3 ) GLOBAL_UNCERTAINTY_ASSIGNED_CONTEXT ( ( #1 ) ) GLOBAL_UNIT_ASSIGNED_CONTEXT ( ( #63, #64, #65 ) ) REPRESENTATION_CONTEXT ( 'NONE', 'WORKASPACE' ) );
ENDSEC;
END-ISO-10303-21;
