ISO-10303-21;
HEADER;
FILE_DESCRIPTION (( 'STEP AP214' ),
    '1' );
FILE_NAME ('R2000P.step',
    '2012-04-20T21:04:55',
    ( '' ),
    ( '' ),
    'SwSTEP 2.0',
    'SolidWorks 2012',
    '' );
FILE_SCHEMA (( 'AUTOMOTIVE_DESIGN' ));
ENDSEC;

DATA;
#1 = AXIS2_PLACEMENT_3D ( 'NONE', #74, #75, #76 ) ;
#2 = AXIS2_PLACEMENT_3D ( 'NONE', #62, #63, #64 ) ;
#3 = AXIS2_PLACEMENT_3D ( 'NONE', #65, #66, #67 ) ;
#4 = CYLINDRICAL_SURFACE ( 'NONE', #2, 1.000000000000000000 ) ;
#5 = AXIS2_PLACEMENT_3D ( 'NONE', #125, #126, #127 ) ;
#6 = FACE_OUTER_BOUND ( 'NONE', #97, .T. ) ;
#7 = ADVANCED_FACE ( 'NONE', ( #142 ), #104, .F. ) ;
#8 = ADVANCED_FACE ( 'NONE', ( #135 ), #108, .T. ) ;
#9 = ADVANCED_FACE ( 'NONE', ( #136 ), #132, .T. ) ;
#10 = CIRCLE ( 'NONE', #5, 1.000000000000000000 ) ;
#11 = COLOUR_RGB ( '',0.5686274509803921400, 0.5686274509803921400, 0.5882352941176470800 ) ;
#12 = CIRCLE ( 'NONE', #3, 1.000000000000000000 ) ;
#13 = CIRCLE ( 'NONE', #26, 1.000000000000000000 ) ;
#14 = COLOUR_RGB ( '',0.5686274509803921400, 0.5686274509803921400, 0.5882352941176470800 ) ;
#15 = CIRCLE ( 'NONE', #1, 1.000000000000000000 ) ;
#16 = PRODUCT_DEFINITION ( 'UNKNOWN', '', #131, #32 ) ;
#17 = PRODUCT_RELATED_PRODUCT_CATEGORY ( 'part', '', ( #40 ) ) ;
#18 = LENGTH_MEASURE_WITH_UNIT ( LENGTH_MEASURE( 0.02539999999999999900 ), #49 );
#19 = LENGTH_MEASURE_WITH_UNIT ( LENGTH_MEASURE( 0.02539999999999999900 ), #80 );
#20 = MECHANICAL_DESIGN_GEOMETRIC_PRESENTATION_REPRESENTATION (  '', ( #24 ), #29 ) ;
#21 = PRESENTATION_LAYER_ASSIGNMENT (  '', '', ( #24 ) ) ;
#22 = VECTOR ( 'NONE', #71, 39.37007874015748100 ) ;
#23 = VECTOR ( 'NONE', #79, 39.37007874015748100 ) ;
#24 = STYLED_ITEM ( 'NONE', ( #48 ), #33 ) ;
#25 = AXIS2_PLACEMENT_3D ( 'NONE', #53, #54, #55 ) ;
#26 = AXIS2_PLACEMENT_3D ( 'NONE', #68, #72, #73 ) ;
#27 =( GEOMETRIC_REPRESENTATION_CONTEXT ( 3 ) GLOBAL_UNCERTAINTY_ASSIGNED_CONTEXT ( ( #35 ) ) GLOBAL_UNIT_ASSIGNED_CONTEXT ( ( #122, #123, #124 ) ) REPRESENTATION_CONTEXT ( 'NONE', 'WORKASPACE' ) );
#28 =( GEOMETRIC_REPRESENTATION_CONTEXT ( 3 ) GLOBAL_UNCERTAINTY_ASSIGNED_CONTEXT ( ( #34 ) ) GLOBAL_UNIT_ASSIGNED_CONTEXT ( ( #81, #82, #83 ) ) REPRESENTATION_CONTEXT ( 'NONE', 'WORKASPACE' ) );
#29 =( GEOMETRIC_REPRESENTATION_CONTEXT ( 3 ) GLOBAL_UNCERTAINTY_ASSIGNED_CONTEXT ( ( #36 ) ) GLOBAL_UNIT_ASSIGNED_CONTEXT ( ( #50, #51, #52 ) ) REPRESENTATION_CONTEXT ( 'NONE', 'WORKASPACE' ) );
#30 = PRODUCT_DEFINITION_SHAPE ( 'NONE', 'NONE',  #16 ) ;
#31 = MANIFOLD_SOLID_BREP ( 'Boss-Extrude1', #138 ) ;
#32 = PRODUCT_DEFINITION_CONTEXT ( 'detailed design', #130, 'design' ) ;
#33 = ADVANCED_BREP_SHAPE_REPRESENTATION ( 'R2000P', ( #31, #25 ), #28 ) ;
#34 = UNCERTAINTY_MEASURE_WITH_UNIT (LENGTH_MEASURE( 1.000000000000000100E-005 ), #81, 'distance_accuracy_value', 'NONE');
#35 = UNCERTAINTY_MEASURE_WITH_UNIT (LENGTH_MEASURE( 1.000000000000000100E-005 ), #122, 'distance_accuracy_value', 'NONE');
#36 = UNCERTAINTY_MEASURE_WITH_UNIT (LENGTH_MEASURE( 1.000000000000000100E-005 ), #50, 'distance_accuracy_value', 'NONE');
#37 = DIMENSIONAL_EXPONENTS ( 1.000000000000000000, 0.0000000000000000000, 0.0000000000000000000, 0.0000000000000000000, 0.0000000000000000000, 0.0000000000000000000, 0.0000000000000000000 ) ;
#38 = DIMENSIONAL_EXPONENTS ( 1.000000000000000000, 0.0000000000000000000, 0.0000000000000000000, 0.0000000000000000000, 0.0000000000000000000, 0.0000000000000000000, 0.0000000000000000000 ) ;
#39 = DIMENSIONAL_EXPONENTS ( 1.000000000000000000, 0.0000000000000000000, 0.0000000000000000000, 0.0000000000000000000, 0.0000000000000000000, 0.0000000000000000000, 0.0000000000000000000 ) ;
#40 = PRODUCT ( 'R2000P', 'R2000P', '', ( #57 ) ) ;
#41 = EDGE_CURVE ( 'NONE', #103, #102, #10, .T. ) ;
#42 = APPLICATION_PROTOCOL_DEFINITION ( 'draft international standard', 'automotive_design', 1998, #129 ) ;
#43 = FILL_AREA_STYLE_COLOUR ( '', #14 ) ;
#44 = FILL_AREA_STYLE ('',( #43 ) ) ;
#45 = SURFACE_STYLE_FILL_AREA ( #44 ) ;
#46 = SURFACE_SIDE_STYLE ('',( #45 ) ) ;
#47 = SURFACE_STYLE_USAGE ( .BOTH. , #46 ) ;
#48 = PRESENTATION_STYLE_ASSIGNMENT (( #47 ) ) ;
#49 =( LENGTH_UNIT ( ) NAMED_UNIT ( * ) SI_UNIT ( $, .METRE. ) );
#50 =( CONVERSION_BASED_UNIT ( 'INCH', #18 ) LENGTH_UNIT ( ) NAMED_UNIT ( #37 ) );
#51 =( NAMED_UNIT ( * ) PLANE_ANGLE_UNIT ( ) SI_UNIT ( $, .RADIAN. ) );
#52 =( NAMED_UNIT ( * ) SI_UNIT ( $, .STERADIAN. ) SOLID_ANGLE_UNIT ( ) );
#53 = CARTESIAN_POINT ( 'NONE',  ( 0.0000000000000000000, 0.0000000000000000000, 0.0000000000000000000 ) ) ;
#54 = DIRECTION ( 'NONE',  ( 0.0000000000000000000, 0.0000000000000000000, 1.000000000000000000 ) ) ;
#55 = DIRECTION ( 'NONE',  ( 1.000000000000000000, 0.0000000000000000000, 0.0000000000000000000 ) ) ;
#56 = SHAPE_DEFINITION_REPRESENTATION ( #30, #33 ) ;
#57 = PRODUCT_CONTEXT ( 'NONE', #129, 'mechanical' ) ;
#58 = APPLICATION_PROTOCOL_DEFINITION ( 'draft international standard', 'automotive_design', 1998, #130 ) ;
#59 = CARTESIAN_POINT ( 'NONE',  ( 0.0000000000000000000, 0.0000000000000000000, -1.000000000000000000 ) ) ;
#60 = CARTESIAN_POINT ( 'NONE',  ( 0.0000000000000000000, 2.000000000000000000, -1.000000000000000000 ) ) ;
#61 = CARTESIAN_POINT ( 'NONE',  ( 1.224646799147353200E-016, 2.000000000000000000, 1.000000000000000000 ) ) ;
#62 = CARTESIAN_POINT ( 'NONE',  ( 0.0000000000000000000, 2.000000000000000000, 0.0000000000000000000 ) ) ;
#63 = DIRECTION ( 'NONE',  ( -0.0000000000000000000, -1.000000000000000000, -0.0000000000000000000 ) ) ;
#64 = DIRECTION ( 'NONE',  ( 0.0000000000000000000, 0.0000000000000000000, -1.000000000000000000 ) ) ;
#65 = CARTESIAN_POINT ( 'NONE',  ( 0.0000000000000000000, 0.0000000000000000000, 0.0000000000000000000 ) ) ;
#66 = DIRECTION ( 'NONE',  ( 0.0000000000000000000, 1.000000000000000000, 0.0000000000000000000 ) ) ;
#67 = DIRECTION ( 'NONE',  ( 0.0000000000000000000, 0.0000000000000000000, 1.000000000000000000 ) ) ;
#68 = CARTESIAN_POINT ( 'NONE',  ( 0.0000000000000000000, 2.000000000000000000, 0.0000000000000000000 ) ) ;
#69 = LINE ( 'NONE', #70, #22 ) ;
#70 = CARTESIAN_POINT ( 'NONE',  ( 0.0000000000000000000, 2.000000000000000000, -1.000000000000000000 ) ) ;
#71 = DIRECTION ( 'NONE',  ( -0.0000000000000000000, -1.000000000000000000, -0.0000000000000000000 ) ) ;
#72 = DIRECTION ( 'NONE',  ( 0.0000000000000000000, 1.000000000000000000, 0.0000000000000000000 ) ) ;
#73 = DIRECTION ( 'NONE',  ( 0.0000000000000000000, 0.0000000000000000000, 1.000000000000000000 ) ) ;
#74 = CARTESIAN_POINT ( 'NONE',  ( 0.0000000000000000000, 0.0000000000000000000, 0.0000000000000000000 ) ) ;
#75 = DIRECTION ( 'NONE',  ( 0.0000000000000000000, 1.000000000000000000, 0.0000000000000000000 ) ) ;
#76 = DIRECTION ( 'NONE',  ( 0.0000000000000000000, 0.0000000000000000000, 1.000000000000000000 ) ) ;
#77 = LINE ( 'NONE', #78, #23 ) ;
#78 = CARTESIAN_POINT ( 'NONE',  ( 1.224646799147353200E-016, 2.000000000000000000, 1.000000000000000000 ) ) ;
#79 = DIRECTION ( 'NONE',  ( -0.0000000000000000000, -1.000000000000000000, -0.0000000000000000000 ) ) ;
#80 =( LENGTH_UNIT ( ) NAMED_UNIT ( * ) SI_UNIT ( $, .METRE. ) );
#81 =( CONVERSION_BASED_UNIT ( 'INCH', #19 ) LENGTH_UNIT ( ) NAMED_UNIT ( #39 ) );
#82 =( NAMED_UNIT ( * ) PLANE_ANGLE_UNIT ( ) SI_UNIT ( $, .RADIAN. ) );
#83 =( NAMED_UNIT ( * ) SI_UNIT ( $, .STERADIAN. ) SOLID_ANGLE_UNIT ( ) );
#84 = ORIENTED_EDGE ( 'NONE', *, *, #148, .T. ) ;
#85 = ORIENTED_EDGE ( 'NONE', *, *, #147, .T. ) ;
#86 = ORIENTED_EDGE ( 'NONE', *, *, #41, .T. ) ;
#87 = ORIENTED_EDGE ( 'NONE', *, *, #148, .F. ) ;
#88 = ORIENTED_EDGE ( 'NONE', *, *, #145, .F. ) ;
#89 = ORIENTED_EDGE ( 'NONE', *, *, #145, .T. ) ;
#90 = ORIENTED_EDGE ( 'NONE', *, *, #149, .T. ) ;
#91 = ORIENTED_EDGE ( 'NONE', *, *, #146, .F. ) ;
#92 = ORIENTED_EDGE ( 'NONE', *, *, #149, .F. ) ;
#93 = ORIENTED_EDGE ( 'NONE', *, *, #146, .T. ) ;
#94 = ORIENTED_EDGE ( 'NONE', *, *, #147, .F. ) ;
#95 = ORIENTED_EDGE ( 'NONE', *, *, #41, .F. ) ;
#96 = EDGE_LOOP ( 'NONE', ( #92, #94, #93, #84 ) ) ;
#97 = EDGE_LOOP ( 'NONE', ( #95, #90, #89, #91 ) ) ;
#98 = EDGE_LOOP ( 'NONE', ( #85, #86 ) ) ;
#99 = EDGE_LOOP ( 'NONE', ( #87, #88 ) ) ;
#100 = VERTEX_POINT ( 'NONE', #128 ) ;
#101 = VERTEX_POINT ( 'NONE', #59 ) ;
#102 = VERTEX_POINT ( 'NONE', #60 ) ;
#103 = VERTEX_POINT ( 'NONE', #61 ) ;
#104 = PLANE ( 'NONE',  #139 ) ;
#105 = CARTESIAN_POINT ( 'NONE',  ( 0.0000000000000000000, 0.0000000000000000000, 0.0000000000000000000 ) ) ;
#106 = DIRECTION ( 'NONE',  ( 0.0000000000000000000, 1.000000000000000000, 0.0000000000000000000 ) ) ;
#107 = DIRECTION ( 'NONE',  ( 0.0000000000000000000, -0.0000000000000000000, 1.000000000000000000 ) ) ;
#108 = PLANE ( 'NONE',  #134 ) ;
#109 = CARTESIAN_POINT ( 'NONE',  ( 0.0000000000000000000, 2.000000000000000000, 0.0000000000000000000 ) ) ;
#110 = DIRECTION ( 'NONE',  ( 0.0000000000000000000, 1.000000000000000000, 0.0000000000000000000 ) ) ;
#111 = DIRECTION ( 'NONE',  ( 0.0000000000000000000, -0.0000000000000000000, 1.000000000000000000 ) ) ;
#112 = CARTESIAN_POINT ( 'NONE',  ( 0.0000000000000000000, 2.000000000000000000, 0.0000000000000000000 ) ) ;
#113 = DIRECTION ( 'NONE',  ( -0.0000000000000000000, -1.000000000000000000, -0.0000000000000000000 ) ) ;
#114 = DIRECTION ( 'NONE',  ( 0.0000000000000000000, 0.0000000000000000000, -1.000000000000000000 ) ) ;
#115 = FILL_AREA_STYLE_COLOUR ( '', #11 ) ;
#116 = FILL_AREA_STYLE ('',( #115 ) ) ;
#117 = SURFACE_STYLE_FILL_AREA ( #116 ) ;
#118 = SURFACE_SIDE_STYLE ('',( #117 ) ) ;
#119 = SURFACE_STYLE_USAGE ( .BOTH. , #118 ) ;
#120 = PRESENTATION_STYLE_ASSIGNMENT (( #119 ) ) ;
#121 =( LENGTH_UNIT ( ) NAMED_UNIT ( * ) SI_UNIT ( $, .METRE. ) );
#122 =( CONVERSION_BASED_UNIT ( 'INCH', #141 ) LENGTH_UNIT ( ) NAMED_UNIT ( #38 ) );
#123 =( NAMED_UNIT ( * ) PLANE_ANGLE_UNIT ( ) SI_UNIT ( $, .RADIAN. ) );
#124 =( NAMED_UNIT ( * ) SI_UNIT ( $, .STERADIAN. ) SOLID_ANGLE_UNIT ( ) );
#125 = CARTESIAN_POINT ( 'NONE',  ( 0.0000000000000000000, 2.000000000000000000, 0.0000000000000000000 ) ) ;
#126 = DIRECTION ( 'NONE',  ( 0.0000000000000000000, 1.000000000000000000, 0.0000000000000000000 ) ) ;
#127 = DIRECTION ( 'NONE',  ( 0.0000000000000000000, 0.0000000000000000000, 1.000000000000000000 ) ) ;
#128 = CARTESIAN_POINT ( 'NONE',  ( 1.224646799147353200E-016, 0.0000000000000000000, 1.000000000000000000 ) ) ;
#129 = APPLICATION_CONTEXT ( 'automotive_design' ) ;
#130 = APPLICATION_CONTEXT ( 'automotive_design' ) ;
#131 = PRODUCT_DEFINITION_FORMATION_WITH_SPECIFIED_SOURCE ( 'ANY', '', #40, .NOT_KNOWN. ) ;
#132 = CYLINDRICAL_SURFACE ( 'NONE', #140, 1.000000000000000000 ) ;
#133 = STYLED_ITEM ( 'NONE', ( #120 ), #31 ) ;
#134 = AXIS2_PLACEMENT_3D ( 'NONE', #109, #110, #111 ) ;
#135 = FACE_OUTER_BOUND ( 'NONE', #98, .T. ) ;
#136 = FACE_OUTER_BOUND ( 'NONE', #96, .T. ) ;
#137 = PRESENTATION_LAYER_ASSIGNMENT (  '', '', ( #133 ) ) ;
#138 = CLOSED_SHELL ( 'NONE', ( #144, #9, #8, #7 ) ) ;
#139 = AXIS2_PLACEMENT_3D ( 'NONE', #105, #106, #107 ) ;
#140 = AXIS2_PLACEMENT_3D ( 'NONE', #112, #113, #114 ) ;
#141 = LENGTH_MEASURE_WITH_UNIT ( LENGTH_MEASURE( 0.02539999999999999900 ), #121 );
#142 = FACE_OUTER_BOUND ( 'NONE', #99, .T. ) ;
#143 = MECHANICAL_DESIGN_GEOMETRIC_PRESENTATION_REPRESENTATION (  '', ( #133 ), #27 ) ;
#144 = ADVANCED_FACE ( 'NONE', ( #6 ), #4, .T. ) ;
#145 = EDGE_CURVE ( 'NONE', #100, #101, #12, .T. ) ;
#146 = EDGE_CURVE ( 'NONE', #102, #101, #69, .T. ) ;
#147 = EDGE_CURVE ( 'NONE', #102, #103, #13, .T. ) ;
#148 = EDGE_CURVE ( 'NONE', #101, #100, #15, .T. ) ;
#149 = EDGE_CURVE ( 'NONE', #103, #100, #77, .T. ) ;
ENDSEC;
END-ISO-10303-21;
