ISO-10303-21;
HEADER;
FILE_DESCRIPTION (( 'STEP AP214' ),
    '1' );
FILE_NAME ('R250A.step',
    '2012-04-20T21:05:02',
    ( '' ),
    ( '' ),
    'SwSTEP 2.0',
    'SolidWorks 2012',
    '' );
FILE_SCHEMA (( 'AUTOMOTIVE_DESIGN' ));
ENDSEC;

DATA;
#1 = UNCERTAINTY_MEASURE_WITH_UNIT (LENGTH_MEASURE( 1.000000000000000100E-005 ), #128, 'distance_accuracy_value', 'NONE');
#2 = UNCERTAINTY_MEASURE_WITH_UNIT (LENGTH_MEASURE( 1.000000000000000100E-005 ), #88, 'distance_accuracy_value', 'NONE');
#3 = UNCERTAINTY_MEASURE_WITH_UNIT (LENGTH_MEASURE( 1.000000000000000100E-005 ), #55, 'distance_accuracy_value', 'NONE');
#4 = ADVANCED_BREP_SHAPE_REPRESENTATION ( 'R250A', ( #36, #16 ), #12 ) ;
#5 = AXIS2_PLACEMENT_3D ( 'NONE', #71, #75, #76 ) ;
#6 = AXIS2_PLACEMENT_3D ( 'NONE', #68, #69, #70 ) ;
#7 = VECTOR ( 'NONE', #64, 39.37007874015748100 ) ;
#8 = AXIS2_PLACEMENT_3D ( 'NONE', #65, #66, #67 ) ;
#9 = FACE_OUTER_BOUND ( 'NONE', #107, .T. ) ;
#10 = AXIS2_PLACEMENT_3D ( 'NONE', #77, #78, #79 ) ;
#11 =( GEOMETRIC_REPRESENTATION_CONTEXT ( 3 ) GLOBAL_UNCERTAINTY_ASSIGNED_CONTEXT ( ( #1 ) ) GLOBAL_UNIT_ASSIGNED_CONTEXT ( ( #128, #129, #130 ) ) REPRESENTATION_CONTEXT ( 'NONE', 'WORKASPACE' ) );
#12 =( GEOMETRIC_REPRESENTATION_CONTEXT ( 3 ) GLOBAL_UNCERTAINTY_ASSIGNED_CONTEXT ( ( #2 ) ) GLOBAL_UNIT_ASSIGNED_CONTEXT ( ( #88, #89, #46 ) ) REPRESENTATION_CONTEXT ( 'NONE', 'WORKASPACE' ) );
#13 =( GEOMETRIC_REPRESENTATION_CONTEXT ( 3 ) GLOBAL_UNCERTAINTY_ASSIGNED_CONTEXT ( ( #3 ) ) GLOBAL_UNIT_ASSIGNED_CONTEXT ( ( #55, #56, #57 ) ) REPRESENTATION_CONTEXT ( 'NONE', 'WORKASPACE' ) );
#14 = APPLICATION_CONTEXT ( 'automotive_design' ) ;
#15 = APPLICATION_CONTEXT ( 'automotive_design' ) ;
#16 = AXIS2_PLACEMENT_3D ( 'NONE', #58, #59, #60 ) ;
#17 = VECTOR ( 'NONE', #74, 39.37007874015748100 ) ;
#18 = CYLINDRICAL_SURFACE ( 'NONE', #20, 0.06250000000000000000 ) ;
#19 = LENGTH_MEASURE_WITH_UNIT ( LENGTH_MEASURE( 0.02539999999999999900 ), #54 );
#20 = AXIS2_PLACEMENT_3D ( 'NONE', #80, #81, #82 ) ;
#21 = MECHANICAL_DESIGN_GEOMETRIC_PRESENTATION_REPRESENTATION (  '', ( #23 ), #13 ) ;
#22 = PRESENTATION_LAYER_ASSIGNMENT (  '', '', ( #23 ) ) ;
#23 = STYLED_ITEM ( 'NONE', ( #53 ), #4 ) ;
#24 = LENGTH_MEASURE_WITH_UNIT ( LENGTH_MEASURE( 0.02539999999999999900 ), #87 );
#25 = ADVANCED_FACE ( 'NONE', ( #139 ), #110, .F. ) ;
#26 = ADVANCED_FACE ( 'NONE', ( #143 ), #114, .T. ) ;
#27 = ADVANCED_FACE ( 'NONE', ( #138 ), #134, .T. ) ;
#28 = CIRCLE ( 'NONE', #8, 0.06250000000000000000 ) ;
#29 = COLOUR_RGB ( '',0.5686274509803921400, 0.5686274509803921400, 0.5882352941176470800 ) ;
#30 = CIRCLE ( 'NONE', #6, 0.06250000000000000000 ) ;
#31 = CIRCLE ( 'NONE', #5, 0.06250000000000000000 ) ;
#32 = CIRCLE ( 'NONE', #10, 0.06250000000000000000 ) ;
#33 = PRODUCT_DEFINITION ( 'UNKNOWN', '', #133, #35 ) ;
#34 = COLOUR_RGB ( '',0.5686274509803921400, 0.5686274509803921400, 0.5882352941176470800 ) ;
#35 = PRODUCT_DEFINITION_CONTEXT ( 'detailed design', #15, 'design' ) ;
#36 = MANIFOLD_SOLID_BREP ( 'Boss-Extrude1', #140 ) ;
#37 = PRODUCT_DEFINITION_SHAPE ( 'NONE', 'NONE',  #33 ) ;
#38 = PRODUCT_RELATED_PRODUCT_CATEGORY ( 'part', '', ( #149 ) ) ;
#39 = EDGE_CURVE ( 'NONE', #90, #92, #62, .T. ) ;
#40 = EDGE_CURVE ( 'NONE', #90, #91, #28, .T. ) ;
#41 = EDGE_CURVE ( 'NONE', #92, #93, #30, .T. ) ;
#42 = EDGE_CURVE ( 'NONE', #91, #93, #72, .T. ) ;
#43 = EDGE_CURVE ( 'NONE', #91, #90, #31, .T. ) ;
#44 = EDGE_CURVE ( 'NONE', #93, #92, #32, .T. ) ;
#45 = ADVANCED_FACE ( 'NONE', ( #9 ), #18, .T. ) ;
#46 =( NAMED_UNIT ( * ) SI_UNIT ( $, .STERADIAN. ) SOLID_ANGLE_UNIT ( ) );
#47 = SHAPE_DEFINITION_REPRESENTATION ( #37, #4 ) ;
#48 = FILL_AREA_STYLE_COLOUR ( '', #34 ) ;
#49 = FILL_AREA_STYLE ('',( #48 ) ) ;
#50 = SURFACE_STYLE_FILL_AREA ( #49 ) ;
#51 = SURFACE_SIDE_STYLE ('',( #50 ) ) ;
#52 = SURFACE_STYLE_USAGE ( .BOTH. , #51 ) ;
#53 = PRESENTATION_STYLE_ASSIGNMENT (( #52 ) ) ;
#54 =( LENGTH_UNIT ( ) NAMED_UNIT ( * ) SI_UNIT ( $, .METRE. ) );
#55 =( CONVERSION_BASED_UNIT ( 'INCH', #19 ) LENGTH_UNIT ( ) NAMED_UNIT ( #148 ) );
#56 =( NAMED_UNIT ( * ) PLANE_ANGLE_UNIT ( ) SI_UNIT ( $, .RADIAN. ) );
#57 =( NAMED_UNIT ( * ) SI_UNIT ( $, .STERADIAN. ) SOLID_ANGLE_UNIT ( ) );
#58 = CARTESIAN_POINT ( 'NONE',  ( 0.0000000000000000000, 0.0000000000000000000, 0.0000000000000000000 ) ) ;
#59 = DIRECTION ( 'NONE',  ( 0.0000000000000000000, 0.0000000000000000000, 1.000000000000000000 ) ) ;
#60 = DIRECTION ( 'NONE',  ( 1.000000000000000000, 0.0000000000000000000, 0.0000000000000000000 ) ) ;
#61 = APPLICATION_PROTOCOL_DEFINITION ( 'draft international standard', 'automotive_design', 1998, #14 ) ;
#62 = LINE ( 'NONE', #63, #7 ) ;
#63 = CARTESIAN_POINT ( 'NONE',  ( 7.654042494670957500E-018, 0.2500000000000000000, 0.06250000000000000000 ) ) ;
#64 = DIRECTION ( 'NONE',  ( -0.0000000000000000000, -1.000000000000000000, -0.0000000000000000000 ) ) ;
#65 = CARTESIAN_POINT ( 'NONE',  ( 0.0000000000000000000, 0.2500000000000000000, 0.0000000000000000000 ) ) ;
#66 = DIRECTION ( 'NONE',  ( 0.0000000000000000000, 1.000000000000000000, 0.0000000000000000000 ) ) ;
#67 = DIRECTION ( 'NONE',  ( 0.0000000000000000000, 0.0000000000000000000, 1.000000000000000000 ) ) ;
#68 = CARTESIAN_POINT ( 'NONE',  ( 0.0000000000000000000, 0.0000000000000000000, 0.0000000000000000000 ) ) ;
#69 = DIRECTION ( 'NONE',  ( 0.0000000000000000000, 1.000000000000000000, 0.0000000000000000000 ) ) ;
#70 = DIRECTION ( 'NONE',  ( 0.0000000000000000000, 0.0000000000000000000, 1.000000000000000000 ) ) ;
#71 = CARTESIAN_POINT ( 'NONE',  ( 0.0000000000000000000, 0.2500000000000000000, 0.0000000000000000000 ) ) ;
#72 = LINE ( 'NONE', #73, #17 ) ;
#73 = CARTESIAN_POINT ( 'NONE',  ( 0.0000000000000000000, 0.2500000000000000000, -0.06250000000000000000 ) ) ;
#74 = DIRECTION ( 'NONE',  ( -0.0000000000000000000, -1.000000000000000000, -0.0000000000000000000 ) ) ;
#75 = DIRECTION ( 'NONE',  ( 0.0000000000000000000, 1.000000000000000000, 0.0000000000000000000 ) ) ;
#76 = DIRECTION ( 'NONE',  ( 0.0000000000000000000, 0.0000000000000000000, 1.000000000000000000 ) ) ;
#77 = CARTESIAN_POINT ( 'NONE',  ( 0.0000000000000000000, 0.0000000000000000000, 0.0000000000000000000 ) ) ;
#78 = DIRECTION ( 'NONE',  ( 0.0000000000000000000, 1.000000000000000000, 0.0000000000000000000 ) ) ;
#79 = DIRECTION ( 'NONE',  ( 0.0000000000000000000, 0.0000000000000000000, 1.000000000000000000 ) ) ;
#80 = CARTESIAN_POINT ( 'NONE',  ( 0.0000000000000000000, 0.2500000000000000000, 0.0000000000000000000 ) ) ;
#81 = DIRECTION ( 'NONE',  ( -0.0000000000000000000, -1.000000000000000000, -0.0000000000000000000 ) ) ;
#82 = DIRECTION ( 'NONE',  ( 0.0000000000000000000, 0.0000000000000000000, -1.000000000000000000 ) ) ;
#83 = CARTESIAN_POINT ( 'NONE',  ( 7.654042494670957500E-018, 0.2500000000000000000, 0.06250000000000000000 ) ) ;
#84 = CARTESIAN_POINT ( 'NONE',  ( 0.0000000000000000000, 0.2500000000000000000, -0.06250000000000000000 ) ) ;
#85 = CARTESIAN_POINT ( 'NONE',  ( 7.654042494670957500E-018, 0.0000000000000000000, 0.06250000000000000000 ) ) ;
#86 = CARTESIAN_POINT ( 'NONE',  ( 0.0000000000000000000, 0.0000000000000000000, -0.06250000000000000000 ) ) ;
#87 =( LENGTH_UNIT ( ) NAMED_UNIT ( * ) SI_UNIT ( $, .METRE. ) );
#88 =( CONVERSION_BASED_UNIT ( 'INCH', #24 ) LENGTH_UNIT ( ) NAMED_UNIT ( #147 ) );
#89 =( NAMED_UNIT ( * ) PLANE_ANGLE_UNIT ( ) SI_UNIT ( $, .RADIAN. ) );
#90 = VERTEX_POINT ( 'NONE', #83 ) ;
#91 = VERTEX_POINT ( 'NONE', #84 ) ;
#92 = VERTEX_POINT ( 'NONE', #85 ) ;
#93 = VERTEX_POINT ( 'NONE', #86 ) ;
#94 = ORIENTED_EDGE ( 'NONE', *, *, #44, .T. ) ;
#95 = ORIENTED_EDGE ( 'NONE', *, *, #43, .T. ) ;
#96 = ORIENTED_EDGE ( 'NONE', *, *, #40, .T. ) ;
#97 = ORIENTED_EDGE ( 'NONE', *, *, #44, .F. ) ;
#98 = ORIENTED_EDGE ( 'NONE', *, *, #41, .F. ) ;
#99 = ORIENTED_EDGE ( 'NONE', *, *, #40, .F. ) ;
#100 = ORIENTED_EDGE ( 'NONE', *, *, #41, .T. ) ;
#101 = ORIENTED_EDGE ( 'NONE', *, *, #39, .T. ) ;
#102 = ORIENTED_EDGE ( 'NONE', *, *, #42, .F. ) ;
#103 = ORIENTED_EDGE ( 'NONE', *, *, #39, .F. ) ;
#104 = ORIENTED_EDGE ( 'NONE', *, *, #42, .T. ) ;
#105 = ORIENTED_EDGE ( 'NONE', *, *, #43, .F. ) ;
#106 = EDGE_LOOP ( 'NONE', ( #103, #105, #104, #94 ) ) ;
#107 = EDGE_LOOP ( 'NONE', ( #99, #101, #100, #102 ) ) ;
#108 = EDGE_LOOP ( 'NONE', ( #95, #96 ) ) ;
#109 = EDGE_LOOP ( 'NONE', ( #97, #98 ) ) ;
#110 = PLANE ( 'NONE',  #142 ) ;
#111 = CARTESIAN_POINT ( 'NONE',  ( 0.0000000000000000000, 0.0000000000000000000, 0.0000000000000000000 ) ) ;
#112 = DIRECTION ( 'NONE',  ( 0.0000000000000000000, 1.000000000000000000, 0.0000000000000000000 ) ) ;
#113 = DIRECTION ( 'NONE',  ( 0.0000000000000000000, -0.0000000000000000000, 1.000000000000000000 ) ) ;
#114 = PLANE ( 'NONE',  #137 ) ;
#115 = CARTESIAN_POINT ( 'NONE',  ( 0.0000000000000000000, 0.2500000000000000000, 0.0000000000000000000 ) ) ;
#116 = DIRECTION ( 'NONE',  ( 0.0000000000000000000, 1.000000000000000000, 0.0000000000000000000 ) ) ;
#117 = DIRECTION ( 'NONE',  ( 0.0000000000000000000, -0.0000000000000000000, 1.000000000000000000 ) ) ;
#118 = CARTESIAN_POINT ( 'NONE',  ( 0.0000000000000000000, 0.2500000000000000000, 0.0000000000000000000 ) ) ;
#119 = DIRECTION ( 'NONE',  ( -0.0000000000000000000, -1.000000000000000000, -0.0000000000000000000 ) ) ;
#120 = DIRECTION ( 'NONE',  ( 0.0000000000000000000, 0.0000000000000000000, -1.000000000000000000 ) ) ;
#121 = FILL_AREA_STYLE_COLOUR ( '', #29 ) ;
#122 = FILL_AREA_STYLE ('',( #121 ) ) ;
#123 = SURFACE_STYLE_FILL_AREA ( #122 ) ;
#124 = SURFACE_SIDE_STYLE ('',( #123 ) ) ;
#125 = SURFACE_STYLE_USAGE ( .BOTH. , #124 ) ;
#126 = PRESENTATION_STYLE_ASSIGNMENT (( #125 ) ) ;
#127 =( LENGTH_UNIT ( ) NAMED_UNIT ( * ) SI_UNIT ( $, .METRE. ) );
#128 =( CONVERSION_BASED_UNIT ( 'INCH', #144 ) LENGTH_UNIT ( ) NAMED_UNIT ( #146 ) );
#129 =( NAMED_UNIT ( * ) PLANE_ANGLE_UNIT ( ) SI_UNIT ( $, .RADIAN. ) );
#130 =( NAMED_UNIT ( * ) SI_UNIT ( $, .STERADIAN. ) SOLID_ANGLE_UNIT ( ) );
#131 = PRODUCT_CONTEXT ( 'NONE', #14, 'mechanical' ) ;
#132 = APPLICATION_PROTOCOL_DEFINITION ( 'draft international standard', 'automotive_design', 1998, #15 ) ;
#133 = PRODUCT_DEFINITION_FORMATION_WITH_SPECIFIED_SOURCE ( 'ANY', '', #149, .NOT_KNOWN. ) ;
#134 = CYLINDRICAL_SURFACE ( 'NONE', #135, 0.06250000000000000000 ) ;
#135 = AXIS2_PLACEMENT_3D ( 'NONE', #118, #119, #120 ) ;
#136 = STYLED_ITEM ( 'NONE', ( #126 ), #36 ) ;
#137 = AXIS2_PLACEMENT_3D ( 'NONE', #115, #116, #117 ) ;
#138 = FACE_OUTER_BOUND ( 'NONE', #106, .T. ) ;
#139 = FACE_OUTER_BOUND ( 'NONE', #109, .T. ) ;
#140 = CLOSED_SHELL ( 'NONE', ( #45, #27, #26, #25 ) ) ;
#141 = PRESENTATION_LAYER_ASSIGNMENT (  '', '', ( #136 ) ) ;
#142 = AXIS2_PLACEMENT_3D ( 'NONE', #111, #112, #113 ) ;
#143 = FACE_OUTER_BOUND ( 'NONE', #108, .T. ) ;
#144 = LENGTH_MEASURE_WITH_UNIT ( LENGTH_MEASURE( 0.02539999999999999900 ), #127 );
#145 = MECHANICAL_DESIGN_GEOMETRIC_PRESENTATION_REPRESENTATION (  '', ( #136 ), #11 ) ;
#146 = DIMENSIONAL_EXPONENTS ( 1.000000000000000000, 0.0000000000000000000, 0.0000000000000000000, 0.0000000000000000000, 0.0000000000000000000, 0.0000000000000000000, 0.0000000000000000000 ) ;
#147 = DIMENSIONAL_EXPONENTS ( 1.000000000000000000, 0.0000000000000000000, 0.0000000000000000000, 0.0000000000000000000, 0.0000000000000000000, 0.0000000000000000000, 0.0000000000000000000 ) ;
#148 = DIMENSIONAL_EXPONENTS ( 1.000000000000000000, 0.0000000000000000000, 0.0000000000000000000, 0.0000000000000000000, 0.0000000000000000000, 0.0000000000000000000, 0.0000000000000000000 ) ;
#149 = PRODUCT ( 'R250A', 'R250A', '', ( #131 ) ) ;
ENDSEC;
END-ISO-10303-21;
