ISO-10303-21;
HEADER;
FILE_DESCRIPTION (( 'STEP AP214' ),
    '1' );
FILE_NAME ('R250A1.step',
    '2012-04-20T21:05:07',
    ( '' ),
    ( '' ),
    'SwSTEP 2.0',
    'SolidWorks 2012',
    '' );
FILE_SCHEMA (( 'AUTOMOTIVE_DESIGN' ));
ENDSEC;

DATA;
#1 = LENGTH_MEASURE_WITH_UNIT ( LENGTH_MEASURE( 0.02539999999999999900 ), #128 );
#2 = PRESENTATION_LAYER_ASSIGNMENT (  '', '', ( #5 ) ) ;
#3 = LENGTH_MEASURE_WITH_UNIT ( LENGTH_MEASURE( 0.02539999999999999900 ), #136 );
#4 = AXIS2_PLACEMENT_3D ( 'NONE', #116, #117, #118 ) ;
#5 = STYLED_ITEM ( 'NONE', ( #127 ), #43 ) ;
#6 = MECHANICAL_DESIGN_GEOMETRIC_PRESENTATION_REPRESENTATION (  '', ( #5 ), #29 ) ;
#7 = STYLED_ITEM ( 'NONE', ( #61 ), #46 ) ;
#8 = FACE_OUTER_BOUND ( 'NONE', #82, .T. ) ;
#9 =( GEOMETRIC_REPRESENTATION_CONTEXT ( 3 ) GLOBAL_UNCERTAINTY_ASSIGNED_CONTEXT ( ( #47 ) ) GLOBAL_UNIT_ASSIGNED_CONTEXT ( ( #63, #64, #65 ) ) REPRESENTATION_CONTEXT ( 'NONE', 'WORKASPACE' ) );
#10 = AXIS2_PLACEMENT_3D ( 'NONE', #112, #113, #114 ) ;
#11 = AXIS2_PLACEMENT_3D ( 'NONE', #119, #120, #121 ) ;
#12 = FACE_OUTER_BOUND ( 'NONE', #84, .T. ) ;
#13 = CYLINDRICAL_SURFACE ( 'NONE', #18, 0.07812500000000000000 ) ;
#14 = AXIS2_PLACEMENT_3D ( 'NONE', #99, #100, #101 ) ;
#15 = CYLINDRICAL_SURFACE ( 'NONE', #11, 0.07812500000000000000 ) ;
#16 = FACE_OUTER_BOUND ( 'NONE', #85, .T. ) ;
#17 = VECTOR ( 'NONE', #105, 39.37007874015748100 ) ;
#18 = AXIS2_PLACEMENT_3D ( 'NONE', #108, #109, #110 ) ;
#19 = APPLICATION_CONTEXT ( 'automotive_design' ) ;
#20 = APPLICATION_CONTEXT ( 'automotive_design' ) ;
#21 = CIRCLE ( 'NONE', #148, 0.07812500000000000000 ) ;
#22 = EDGE_CURVE ( 'NONE', #88, #89, #21, .T. ) ;
#23 = EDGE_CURVE ( 'NONE', #87, #89, #94, .T. ) ;
#24 = EDGE_CURVE ( 'NONE', #87, #86, #34, .T. ) ;
#25 = EDGE_CURVE ( 'NONE', #89, #88, #35, .T. ) ;
#26 = EDGE_CURVE ( 'NONE', #86, #88, #103, .T. ) ;
#27 = EDGE_CURVE ( 'NONE', #86, #87, #36, .T. ) ;
#28 = ADVANCED_FACE ( 'NONE', ( #143 ), #13, .T. ) ;
#29 =( GEOMETRIC_REPRESENTATION_CONTEXT ( 3 ) GLOBAL_UNCERTAINTY_ASSIGNED_CONTEXT ( ( #44 ) ) GLOBAL_UNIT_ASSIGNED_CONTEXT ( ( #129, #130, #131 ) ) REPRESENTATION_CONTEXT ( 'NONE', 'WORKASPACE' ) );
#30 =( GEOMETRIC_REPRESENTATION_CONTEXT ( 3 ) GLOBAL_UNCERTAINTY_ASSIGNED_CONTEXT ( ( #45 ) ) GLOBAL_UNIT_ASSIGNED_CONTEXT ( ( #137, #138, #54 ) ) REPRESENTATION_CONTEXT ( 'NONE', 'WORKASPACE' ) );
#31 = ADVANCED_FACE ( 'NONE', ( #16 ), #111, .F. ) ;
#32 = ADVANCED_FACE ( 'NONE', ( #12 ), #115, .T. ) ;
#33 = ADVANCED_FACE ( 'NONE', ( #8 ), #15, .T. ) ;
#34 = CIRCLE ( 'NONE', #145, 0.07812500000000000000 ) ;
#35 = CIRCLE ( 'NONE', #14, 0.07812500000000000000 ) ;
#36 = CIRCLE ( 'NONE', #146, 0.07812500000000000000 ) ;
#37 = COLOUR_RGB ( '',0.5686274509803921400, 0.5686274509803921400, 0.5882352941176470800 ) ;
#38 = COLOUR_RGB ( '',0.5686274509803921400, 0.5686274509803921400, 0.5882352941176470800 ) ;
#39 = PRODUCT_RELATED_PRODUCT_CATEGORY ( 'part', '', ( #51 ) ) ;
#40 = PRODUCT_DEFINITION ( 'UNKNOWN', '', #149, #41 ) ;
#41 = PRODUCT_DEFINITION_CONTEXT ( 'detailed design', #20, 'design' ) ;
#42 = PRODUCT_DEFINITION_SHAPE ( 'NONE', 'NONE',  #40 ) ;
#43 = MANIFOLD_SOLID_BREP ( 'Boss-Extrude1', #144 ) ;
#44 = UNCERTAINTY_MEASURE_WITH_UNIT (LENGTH_MEASURE( 1.000000000000000100E-005 ), #129, 'distance_accuracy_value', 'NONE');
#45 = UNCERTAINTY_MEASURE_WITH_UNIT (LENGTH_MEASURE( 1.000000000000000100E-005 ), #137, 'distance_accuracy_value', 'NONE');
#46 = ADVANCED_BREP_SHAPE_REPRESENTATION ( 'R250A1', ( #43, #139 ), #30 ) ;
#47 = UNCERTAINTY_MEASURE_WITH_UNIT (LENGTH_MEASURE( 1.000000000000000100E-005 ), #63, 'distance_accuracy_value', 'NONE');
#48 = DIMENSIONAL_EXPONENTS ( 1.000000000000000000, 0.0000000000000000000, 0.0000000000000000000, 0.0000000000000000000, 0.0000000000000000000, 0.0000000000000000000, 0.0000000000000000000 ) ;
#49 = DIMENSIONAL_EXPONENTS ( 1.000000000000000000, 0.0000000000000000000, 0.0000000000000000000, 0.0000000000000000000, 0.0000000000000000000, 0.0000000000000000000, 0.0000000000000000000 ) ;
#50 = DIMENSIONAL_EXPONENTS ( 1.000000000000000000, 0.0000000000000000000, 0.0000000000000000000, 0.0000000000000000000, 0.0000000000000000000, 0.0000000000000000000, 0.0000000000000000000 ) ;
#51 = PRODUCT ( 'R250A1', 'R250A1', '', ( #52 ) ) ;
#52 = PRODUCT_CONTEXT ( 'NONE', #19, 'mechanical' ) ;
#53 = APPLICATION_PROTOCOL_DEFINITION ( 'draft international standard', 'automotive_design', 1998, #20 ) ;
#54 =( NAMED_UNIT ( * ) SI_UNIT ( $, .STERADIAN. ) SOLID_ANGLE_UNIT ( ) );
#55 = APPLICATION_PROTOCOL_DEFINITION ( 'draft international standard', 'automotive_design', 1998, #19 ) ;
#56 = FILL_AREA_STYLE_COLOUR ( '', #37 ) ;
#57 = FILL_AREA_STYLE ('',( #56 ) ) ;
#58 = SURFACE_STYLE_FILL_AREA ( #57 ) ;
#59 = SURFACE_SIDE_STYLE ('',( #58 ) ) ;
#60 = SURFACE_STYLE_USAGE ( .BOTH. , #59 ) ;
#61 = PRESENTATION_STYLE_ASSIGNMENT (( #60 ) ) ;
#62 =( LENGTH_UNIT ( ) NAMED_UNIT ( * ) SI_UNIT ( $, .METRE. ) );
#63 =( CONVERSION_BASED_UNIT ( 'INCH', #140 ) LENGTH_UNIT ( ) NAMED_UNIT ( #50 ) );
#64 =( NAMED_UNIT ( * ) PLANE_ANGLE_UNIT ( ) SI_UNIT ( $, .RADIAN. ) );
#65 =( NAMED_UNIT ( * ) SI_UNIT ( $, .STERADIAN. ) SOLID_ANGLE_UNIT ( ) );
#66 = CARTESIAN_POINT ( 'NONE',  ( 0.0000000000000000000, 0.0000000000000000000, 0.0000000000000000000 ) ) ;
#67 = DIRECTION ( 'NONE',  ( 0.0000000000000000000, 0.0000000000000000000, 1.000000000000000000 ) ) ;
#68 = DIRECTION ( 'NONE',  ( 1.000000000000000000, 0.0000000000000000000, 0.0000000000000000000 ) ) ;
#69 = SHAPE_DEFINITION_REPRESENTATION ( #42, #46 ) ;
#70 = ORIENTED_EDGE ( 'NONE', *, *, #22, .T. ) ;
#71 = ORIENTED_EDGE ( 'NONE', *, *, #26, .T. ) ;
#72 = ORIENTED_EDGE ( 'NONE', *, *, #23, .F. ) ;
#73 = ORIENTED_EDGE ( 'NONE', *, *, #26, .F. ) ;
#74 = ORIENTED_EDGE ( 'NONE', *, *, #23, .T. ) ;
#75 = ORIENTED_EDGE ( 'NONE', *, *, #24, .F. ) ;
#76 = ORIENTED_EDGE ( 'NONE', *, *, #27, .F. ) ;
#77 = ORIENTED_EDGE ( 'NONE', *, *, #25, .T. ) ;
#78 = ORIENTED_EDGE ( 'NONE', *, *, #24, .T. ) ;
#79 = ORIENTED_EDGE ( 'NONE', *, *, #27, .T. ) ;
#80 = ORIENTED_EDGE ( 'NONE', *, *, #25, .F. ) ;
#81 = ORIENTED_EDGE ( 'NONE', *, *, #22, .F. ) ;
#82 = EDGE_LOOP ( 'NONE', ( #73, #75, #74, #77 ) ) ;
#83 = EDGE_LOOP ( 'NONE', ( #76, #71, #70, #72 ) ) ;
#84 = EDGE_LOOP ( 'NONE', ( #78, #79 ) ) ;
#85 = EDGE_LOOP ( 'NONE', ( #80, #81 ) ) ;
#86 = VERTEX_POINT ( 'NONE', #132 ) ;
#87 = VERTEX_POINT ( 'NONE', #133 ) ;
#88 = VERTEX_POINT ( 'NONE', #134 ) ;
#89 = VERTEX_POINT ( 'NONE', #135 ) ;
#90 = CARTESIAN_POINT ( 'NONE',  ( 0.0000000000000000000, 0.0000000000000000000, 0.0000000000000000000 ) ) ;
#91 = DIRECTION ( 'NONE',  ( 0.0000000000000000000, 1.000000000000000000, 0.0000000000000000000 ) ) ;
#92 = DIRECTION ( 'NONE',  ( 0.0000000000000000000, 0.0000000000000000000, 1.000000000000000000 ) ) ;
#93 = CARTESIAN_POINT ( 'NONE',  ( 0.0000000000000000000, 0.2500000000000000000, 0.0000000000000000000 ) ) ;
#94 = LINE ( 'NONE', #95, #147 ) ;
#95 = CARTESIAN_POINT ( 'NONE',  ( 0.0000000000000000000, 0.2500000000000000000, -0.07812500000000000000 ) ) ;
#96 = DIRECTION ( 'NONE',  ( -0.0000000000000000000, -1.000000000000000000, -0.0000000000000000000 ) ) ;
#97 = DIRECTION ( 'NONE',  ( 0.0000000000000000000, 1.000000000000000000, 0.0000000000000000000 ) ) ;
#98 = DIRECTION ( 'NONE',  ( 0.0000000000000000000, 0.0000000000000000000, 1.000000000000000000 ) ) ;
#99 = CARTESIAN_POINT ( 'NONE',  ( 0.0000000000000000000, 0.0000000000000000000, 0.0000000000000000000 ) ) ;
#100 = DIRECTION ( 'NONE',  ( 0.0000000000000000000, 1.000000000000000000, 0.0000000000000000000 ) ) ;
#101 = DIRECTION ( 'NONE',  ( 0.0000000000000000000, 0.0000000000000000000, 1.000000000000000000 ) ) ;
#102 = CARTESIAN_POINT ( 'NONE',  ( 0.0000000000000000000, 0.2500000000000000000, 0.0000000000000000000 ) ) ;
#103 = LINE ( 'NONE', #104, #17 ) ;
#104 = CARTESIAN_POINT ( 'NONE',  ( 9.567553118338697300E-018, 0.2500000000000000000, 0.07812500000000000000 ) ) ;
#105 = DIRECTION ( 'NONE',  ( -0.0000000000000000000, -1.000000000000000000, -0.0000000000000000000 ) ) ;
#106 = DIRECTION ( 'NONE',  ( 0.0000000000000000000, 1.000000000000000000, 0.0000000000000000000 ) ) ;
#107 = DIRECTION ( 'NONE',  ( 0.0000000000000000000, 0.0000000000000000000, 1.000000000000000000 ) ) ;
#108 = CARTESIAN_POINT ( 'NONE',  ( 0.0000000000000000000, 0.2500000000000000000, 0.0000000000000000000 ) ) ;
#109 = DIRECTION ( 'NONE',  ( -0.0000000000000000000, -1.000000000000000000, -0.0000000000000000000 ) ) ;
#110 = DIRECTION ( 'NONE',  ( 0.0000000000000000000, 0.0000000000000000000, -1.000000000000000000 ) ) ;
#111 = PLANE ( 'NONE',  #10 ) ;
#112 = CARTESIAN_POINT ( 'NONE',  ( 0.0000000000000000000, 0.0000000000000000000, 0.0000000000000000000 ) ) ;
#113 = DIRECTION ( 'NONE',  ( 0.0000000000000000000, 1.000000000000000000, 0.0000000000000000000 ) ) ;
#114 = DIRECTION ( 'NONE',  ( 0.0000000000000000000, -0.0000000000000000000, 1.000000000000000000 ) ) ;
#115 = PLANE ( 'NONE',  #4 ) ;
#116 = CARTESIAN_POINT ( 'NONE',  ( 0.0000000000000000000, 0.2500000000000000000, 0.0000000000000000000 ) ) ;
#117 = DIRECTION ( 'NONE',  ( 0.0000000000000000000, 1.000000000000000000, 0.0000000000000000000 ) ) ;
#118 = DIRECTION ( 'NONE',  ( 0.0000000000000000000, -0.0000000000000000000, 1.000000000000000000 ) ) ;
#119 = CARTESIAN_POINT ( 'NONE',  ( 0.0000000000000000000, 0.2500000000000000000, 0.0000000000000000000 ) ) ;
#120 = DIRECTION ( 'NONE',  ( -0.0000000000000000000, -1.000000000000000000, -0.0000000000000000000 ) ) ;
#121 = DIRECTION ( 'NONE',  ( 0.0000000000000000000, 0.0000000000000000000, -1.000000000000000000 ) ) ;
#122 = FILL_AREA_STYLE_COLOUR ( '', #38 ) ;
#123 = FILL_AREA_STYLE ('',( #122 ) ) ;
#124 = SURFACE_STYLE_FILL_AREA ( #123 ) ;
#125 = SURFACE_SIDE_STYLE ('',( #124 ) ) ;
#126 = SURFACE_STYLE_USAGE ( .BOTH. , #125 ) ;
#127 = PRESENTATION_STYLE_ASSIGNMENT (( #126 ) ) ;
#128 =( LENGTH_UNIT ( ) NAMED_UNIT ( * ) SI_UNIT ( $, .METRE. ) );
#129 =( CONVERSION_BASED_UNIT ( 'INCH', #1 ) LENGTH_UNIT ( ) NAMED_UNIT ( #49 ) );
#130 =( NAMED_UNIT ( * ) PLANE_ANGLE_UNIT ( ) SI_UNIT ( $, .RADIAN. ) );
#131 =( NAMED_UNIT ( * ) SI_UNIT ( $, .STERADIAN. ) SOLID_ANGLE_UNIT ( ) );
#132 = CARTESIAN_POINT ( 'NONE',  ( 9.567553118338697300E-018, 0.2500000000000000000, 0.07812500000000000000 ) ) ;
#133 = CARTESIAN_POINT ( 'NONE',  ( 0.0000000000000000000, 0.2500000000000000000, -0.07812500000000000000 ) ) ;
#134 = CARTESIAN_POINT ( 'NONE',  ( 9.567553118338697300E-018, 0.0000000000000000000, 0.07812500000000000000 ) ) ;
#135 = CARTESIAN_POINT ( 'NONE',  ( 0.0000000000000000000, 0.0000000000000000000, -0.07812500000000000000 ) ) ;
#136 =( LENGTH_UNIT ( ) NAMED_UNIT ( * ) SI_UNIT ( $, .METRE. ) );
#137 =( CONVERSION_BASED_UNIT ( 'INCH', #3 ) LENGTH_UNIT ( ) NAMED_UNIT ( #48 ) );
#138 =( NAMED_UNIT ( * ) PLANE_ANGLE_UNIT ( ) SI_UNIT ( $, .RADIAN. ) );
#139 = AXIS2_PLACEMENT_3D ( 'NONE', #66, #67, #68 ) ;
#140 = LENGTH_MEASURE_WITH_UNIT ( LENGTH_MEASURE( 0.02539999999999999900 ), #62 );
#141 = MECHANICAL_DESIGN_GEOMETRIC_PRESENTATION_REPRESENTATION (  '', ( #7 ), #9 ) ;
#142 = PRESENTATION_LAYER_ASSIGNMENT (  '', '', ( #7 ) ) ;
#143 = FACE_OUTER_BOUND ( 'NONE', #83, .T. ) ;
#144 = CLOSED_SHELL ( 'NONE', ( #28, #33, #32, #31 ) ) ;
#145 = AXIS2_PLACEMENT_3D ( 'NONE', #93, #97, #98 ) ;
#146 = AXIS2_PLACEMENT_3D ( 'NONE', #102, #106, #107 ) ;
#147 = VECTOR ( 'NONE', #96, 39.37007874015748100 ) ;
#148 = AXIS2_PLACEMENT_3D ( 'NONE', #90, #91, #92 ) ;
#149 = PRODUCT_DEFINITION_FORMATION_WITH_SPECIFIED_SOURCE ( 'ANY', '', #51, .NOT_KNOWN. ) ;
ENDSEC;
END-ISO-10303-21;
