ISO-10303-21;
HEADER;
FILE_DESCRIPTION (( 'STEP AP214' ),
    '1' );
FILE_NAME ('R250B40SH.step',
    '2012-04-20T21:05:19',
    ( '' ),
    ( '' ),
    'SwSTEP 2.0',
    'SolidWorks 2012',
    '' );
FILE_SCHEMA (( 'AUTOMOTIVE_DESIGN' ));
ENDSEC;

DATA;
#1 =( GEOMETRIC_REPRESENTATION_CONTEXT ( 3 ) GLOBAL_UNCERTAINTY_ASSIGNED_CONTEXT ( ( #58 ) ) GLOBAL_UNIT_ASSIGNED_CONTEXT ( ( #96, #97, #98 ) ) REPRESENTATION_CONTEXT ( 'NONE', 'WORKASPACE' ) );
#2 =( GEOMETRIC_REPRESENTATION_CONTEXT ( 3 ) GLOBAL_UNCERTAINTY_ASSIGNED_CONTEXT ( ( #55 ) ) GLOBAL_UNIT_ASSIGNED_CONTEXT ( ( #100, #66, #67 ) ) REPRESENTATION_CONTEXT ( 'NONE', 'WORKASPACE' ) );
#3 =( GEOMETRIC_REPRESENTATION_CONTEXT ( 3 ) GLOBAL_UNCERTAINTY_ASSIGNED_CONTEXT ( ( #57 ) ) GLOBAL_UNIT_ASSIGNED_CONTEXT ( ( #76, #77, #78 ) ) REPRESENTATION_CONTEXT ( 'NONE', 'WORKASPACE' ) );
#4 = ADVANCED_FACE ( 'NONE', ( #25 ), #24, .T. ) ;
#5 = VERTEX_POINT ( 'NONE', #111 ) ;
#6 = VERTEX_POINT ( 'NONE', #112 ) ;
#7 = ORIENTED_EDGE ( 'NONE', *, *, #43, .F. ) ;
#8 = ORIENTED_EDGE ( 'NONE', *, *, #40, .F. ) ;
#9 = PRODUCT_DEFINITION_FORMATION_WITH_SPECIFIED_SOURCE ( 'ANY', '', #62, .NOT_KNOWN. ) ;
#10 = VERTEX_POINT ( 'NONE', #113 ) ;
#11 = VERTEX_POINT ( 'NONE', #114 ) ;
#12 = AXIS2_PLACEMENT_3D ( 'NONE', #83, #87, #88 ) ;
#13 = STYLED_ITEM ( 'NONE', ( #94 ), #47 ) ;
#14 = AXIS2_PLACEMENT_3D ( 'NONE', #108, #109, #110 ) ;
#15 = CYLINDRICAL_SURFACE ( 'NONE', #21, 0.1250000000000000000 ) ;
#16 = CLOSED_SHELL ( 'NONE', ( #4, #29, #28, #27 ) ) ;
#17 = AXIS2_PLACEMENT_3D ( 'NONE', #120, #121, #122 ) ;
#18 = FACE_OUTER_BOUND ( 'NONE', #105, .T. ) ;
#19 = AXIS2_PLACEMENT_3D ( 'NONE', #126, #127, #128 ) ;
#20 = AXIS2_PLACEMENT_3D ( 'NONE', #116, #117, #118 ) ;
#21 = AXIS2_PLACEMENT_3D ( 'NONE', #123, #124, #125 ) ;
#22 = FACE_OUTER_BOUND ( 'NONE', #104, .T. ) ;
#23 = FACE_OUTER_BOUND ( 'NONE', #106, .T. ) ;
#24 = CYLINDRICAL_SURFACE ( 'NONE', #14, 0.1250000000000000000 ) ;
#25 = FACE_OUTER_BOUND ( 'NONE', #107, .T. ) ;
#26 = ORIENTED_EDGE ( 'NONE', *, *, #41, .F. ) ;
#27 = ADVANCED_FACE ( 'NONE', ( #23 ), #115, .F. ) ;
#28 = ADVANCED_FACE ( 'NONE', ( #22 ), #119, .T. ) ;
#29 = ADVANCED_FACE ( 'NONE', ( #18 ), #15, .T. ) ;
#30 = CIRCLE ( 'NONE', #148, 0.1250000000000000000 ) ;
#31 = CIRCLE ( 'NONE', #144, 0.1250000000000000000 ) ;
#32 = CIRCLE ( 'NONE', #19, 0.1250000000000000000 ) ;
#33 = CIRCLE ( 'NONE', #12, 0.1250000000000000000 ) ;
#34 = COLOUR_RGB ( '',0.5686274509803921400, 0.5686274509803921400, 0.5882352941176470800 ) ;
#35 = COLOUR_RGB ( '',0.5686274509803921400, 0.5686274509803921400, 0.5882352941176470800 ) ;
#36 = PRODUCT_DEFINITION ( 'UNKNOWN', '', #9, #46 ) ;
#37 = APPLICATION_CONTEXT ( 'automotive_design' ) ;
#38 = APPLICATION_CONTEXT ( 'automotive_design' ) ;
#39 = PRODUCT_RELATED_PRODUCT_CATEGORY ( 'part', '', ( #62 ) ) ;
#40 = EDGE_CURVE ( 'NONE', #10, #11, #32, .T. ) ;
#41 = EDGE_CURVE ( 'NONE', #5, #11, #130, .T. ) ;
#42 = EDGE_CURVE ( 'NONE', #5, #6, #31, .T. ) ;
#43 = EDGE_CURVE ( 'NONE', #11, #10, #30, .T. ) ;
#44 = EDGE_CURVE ( 'NONE', #6, #10, #84, .T. ) ;
#45 = EDGE_CURVE ( 'NONE', #6, #5, #33, .T. ) ;
#46 = PRODUCT_DEFINITION_CONTEXT ( 'detailed design', #38, 'design' ) ;
#47 = MANIFOLD_SOLID_BREP ( 'Boss-Extrude1', #16 ) ;
#48 = PRODUCT_DEFINITION_SHAPE ( 'NONE', 'NONE',  #36 ) ;
#49 = ORIENTED_EDGE ( 'NONE', *, *, #44, .F. ) ;
#50 = ORIENTED_EDGE ( 'NONE', *, *, #45, .T. ) ;
#51 = ORIENTED_EDGE ( 'NONE', *, *, #42, .T. ) ;
#52 = ORIENTED_EDGE ( 'NONE', *, *, #43, .T. ) ;
#53 = ORIENTED_EDGE ( 'NONE', *, *, #40, .T. ) ;
#54 = ORIENTED_EDGE ( 'NONE', *, *, #44, .T. ) ;
#55 = UNCERTAINTY_MEASURE_WITH_UNIT (LENGTH_MEASURE( 1.000000000000000100E-005 ), #100, 'distance_accuracy_value', 'NONE');
#56 = ADVANCED_BREP_SHAPE_REPRESENTATION ( 'R250B40SH', ( #47, #141 ), #2 ) ;
#57 = UNCERTAINTY_MEASURE_WITH_UNIT (LENGTH_MEASURE( 1.000000000000000100E-005 ), #76, 'distance_accuracy_value', 'NONE');
#58 = UNCERTAINTY_MEASURE_WITH_UNIT (LENGTH_MEASURE( 1.000000000000000100E-005 ), #96, 'distance_accuracy_value', 'NONE');
#59 = DIMENSIONAL_EXPONENTS ( 1.000000000000000000, 0.0000000000000000000, 0.0000000000000000000, 0.0000000000000000000, 0.0000000000000000000, 0.0000000000000000000, 0.0000000000000000000 ) ;
#60 = DIMENSIONAL_EXPONENTS ( 1.000000000000000000, 0.0000000000000000000, 0.0000000000000000000, 0.0000000000000000000, 0.0000000000000000000, 0.0000000000000000000, 0.0000000000000000000 ) ;
#61 = DIMENSIONAL_EXPONENTS ( 1.000000000000000000, 0.0000000000000000000, 0.0000000000000000000, 0.0000000000000000000, 0.0000000000000000000, 0.0000000000000000000, 0.0000000000000000000 ) ;
#62 = PRODUCT ( 'R250B40SH', 'R250B40SH', '', ( #64 ) ) ;
#63 = APPLICATION_PROTOCOL_DEFINITION ( 'draft international standard', 'automotive_design', 1998, #37 ) ;
#64 = PRODUCT_CONTEXT ( 'NONE', #37, 'mechanical' ) ;
#65 = APPLICATION_PROTOCOL_DEFINITION ( 'draft international standard', 'automotive_design', 1998, #38 ) ;
#66 =( NAMED_UNIT ( * ) PLANE_ANGLE_UNIT ( ) SI_UNIT ( $, .RADIAN. ) );
#67 =( NAMED_UNIT ( * ) SI_UNIT ( $, .STERADIAN. ) SOLID_ANGLE_UNIT ( ) );
#68 = SHAPE_DEFINITION_REPRESENTATION ( #48, #56 ) ;
#69 = FILL_AREA_STYLE_COLOUR ( '', #35 ) ;
#70 = FILL_AREA_STYLE ('',( #69 ) ) ;
#71 = SURFACE_STYLE_FILL_AREA ( #70 ) ;
#72 = SURFACE_SIDE_STYLE ('',( #71 ) ) ;
#73 = SURFACE_STYLE_USAGE ( .BOTH. , #72 ) ;
#74 = PRESENTATION_STYLE_ASSIGNMENT (( #73 ) ) ;
#75 =( LENGTH_UNIT ( ) NAMED_UNIT ( * ) SI_UNIT ( $, .METRE. ) );
#76 =( CONVERSION_BASED_UNIT ( 'INCH', #140 ) LENGTH_UNIT ( ) NAMED_UNIT ( #61 ) );
#77 =( NAMED_UNIT ( * ) PLANE_ANGLE_UNIT ( ) SI_UNIT ( $, .RADIAN. ) );
#78 =( NAMED_UNIT ( * ) SI_UNIT ( $, .STERADIAN. ) SOLID_ANGLE_UNIT ( ) );
#79 = CARTESIAN_POINT ( 'NONE',  ( 0.0000000000000000000, 0.0000000000000000000, 0.0000000000000000000 ) ) ;
#80 = DIRECTION ( 'NONE',  ( 0.0000000000000000000, 0.0000000000000000000, 1.000000000000000000 ) ) ;
#81 = DIRECTION ( 'NONE',  ( 1.000000000000000000, 0.0000000000000000000, 0.0000000000000000000 ) ) ;
#82 = DIRECTION ( 'NONE',  ( 0.0000000000000000000, 0.0000000000000000000, 1.000000000000000000 ) ) ;
#83 = CARTESIAN_POINT ( 'NONE',  ( 0.0000000000000000000, 0.2500000000000000000, 0.0000000000000000000 ) ) ;
#84 = LINE ( 'NONE', #85, #149 ) ;
#85 = CARTESIAN_POINT ( 'NONE',  ( 1.530808498934191500E-017, 0.2500000000000000000, 0.1250000000000000000 ) ) ;
#86 = DIRECTION ( 'NONE',  ( -0.0000000000000000000, -1.000000000000000000, -0.0000000000000000000 ) ) ;
#87 = DIRECTION ( 'NONE',  ( 0.0000000000000000000, 1.000000000000000000, 0.0000000000000000000 ) ) ;
#88 = DIRECTION ( 'NONE',  ( 0.0000000000000000000, 0.0000000000000000000, 1.000000000000000000 ) ) ;
#89 = FILL_AREA_STYLE_COLOUR ( '', #34 ) ;
#90 = FILL_AREA_STYLE ('',( #89 ) ) ;
#91 = SURFACE_STYLE_FILL_AREA ( #90 ) ;
#92 = SURFACE_SIDE_STYLE ('',( #91 ) ) ;
#93 = SURFACE_STYLE_USAGE ( .BOTH. , #92 ) ;
#94 = PRESENTATION_STYLE_ASSIGNMENT (( #93 ) ) ;
#95 =( LENGTH_UNIT ( ) NAMED_UNIT ( * ) SI_UNIT ( $, .METRE. ) );
#96 =( CONVERSION_BASED_UNIT ( 'INCH', #146 ) LENGTH_UNIT ( ) NAMED_UNIT ( #59 ) );
#97 =( NAMED_UNIT ( * ) PLANE_ANGLE_UNIT ( ) SI_UNIT ( $, .RADIAN. ) );
#98 =( NAMED_UNIT ( * ) SI_UNIT ( $, .STERADIAN. ) SOLID_ANGLE_UNIT ( ) );
#99 =( LENGTH_UNIT ( ) NAMED_UNIT ( * ) SI_UNIT ( $, .METRE. ) );
#100 =( CONVERSION_BASED_UNIT ( 'INCH', #143 ) LENGTH_UNIT ( ) NAMED_UNIT ( #60 ) );
#101 = ORIENTED_EDGE ( 'NONE', *, *, #41, .T. ) ;
#102 = ORIENTED_EDGE ( 'NONE', *, *, #42, .F. ) ;
#103 = ORIENTED_EDGE ( 'NONE', *, *, #45, .F. ) ;
#104 = EDGE_LOOP ( 'NONE', ( #51, #50 ) ) ;
#105 = EDGE_LOOP ( 'NONE', ( #49, #102, #101, #52 ) ) ;
#106 = EDGE_LOOP ( 'NONE', ( #7, #8 ) ) ;
#107 = EDGE_LOOP ( 'NONE', ( #103, #54, #53, #26 ) ) ;
#108 = CARTESIAN_POINT ( 'NONE',  ( 0.0000000000000000000, 0.2500000000000000000, 0.0000000000000000000 ) ) ;
#109 = DIRECTION ( 'NONE',  ( -0.0000000000000000000, -1.000000000000000000, -0.0000000000000000000 ) ) ;
#110 = DIRECTION ( 'NONE',  ( 0.0000000000000000000, 0.0000000000000000000, -1.000000000000000000 ) ) ;
#111 = CARTESIAN_POINT ( 'NONE',  ( 0.0000000000000000000, 0.2500000000000000000, -0.1250000000000000000 ) ) ;
#112 = CARTESIAN_POINT ( 'NONE',  ( 1.530808498934191500E-017, 0.2500000000000000000, 0.1250000000000000000 ) ) ;
#113 = CARTESIAN_POINT ( 'NONE',  ( 1.530808498934191500E-017, 0.0000000000000000000, 0.1250000000000000000 ) ) ;
#114 = CARTESIAN_POINT ( 'NONE',  ( 0.0000000000000000000, 0.0000000000000000000, -0.1250000000000000000 ) ) ;
#115 = PLANE ( 'NONE',  #20 ) ;
#116 = CARTESIAN_POINT ( 'NONE',  ( 0.0000000000000000000, 0.0000000000000000000, 0.0000000000000000000 ) ) ;
#117 = DIRECTION ( 'NONE',  ( 0.0000000000000000000, 1.000000000000000000, 0.0000000000000000000 ) ) ;
#118 = DIRECTION ( 'NONE',  ( 0.0000000000000000000, -0.0000000000000000000, 1.000000000000000000 ) ) ;
#119 = PLANE ( 'NONE',  #17 ) ;
#120 = CARTESIAN_POINT ( 'NONE',  ( 0.0000000000000000000, 0.2500000000000000000, 0.0000000000000000000 ) ) ;
#121 = DIRECTION ( 'NONE',  ( 0.0000000000000000000, 1.000000000000000000, 0.0000000000000000000 ) ) ;
#122 = DIRECTION ( 'NONE',  ( 0.0000000000000000000, -0.0000000000000000000, 1.000000000000000000 ) ) ;
#123 = CARTESIAN_POINT ( 'NONE',  ( 0.0000000000000000000, 0.2500000000000000000, 0.0000000000000000000 ) ) ;
#124 = DIRECTION ( 'NONE',  ( -0.0000000000000000000, -1.000000000000000000, -0.0000000000000000000 ) ) ;
#125 = DIRECTION ( 'NONE',  ( 0.0000000000000000000, 0.0000000000000000000, -1.000000000000000000 ) ) ;
#126 = CARTESIAN_POINT ( 'NONE',  ( 0.0000000000000000000, 0.0000000000000000000, 0.0000000000000000000 ) ) ;
#127 = DIRECTION ( 'NONE',  ( 0.0000000000000000000, 1.000000000000000000, 0.0000000000000000000 ) ) ;
#128 = DIRECTION ( 'NONE',  ( 0.0000000000000000000, 0.0000000000000000000, 1.000000000000000000 ) ) ;
#129 = CARTESIAN_POINT ( 'NONE',  ( 0.0000000000000000000, 0.2500000000000000000, 0.0000000000000000000 ) ) ;
#130 = LINE ( 'NONE', #131, #145 ) ;
#131 = CARTESIAN_POINT ( 'NONE',  ( 0.0000000000000000000, 0.2500000000000000000, -0.1250000000000000000 ) ) ;
#132 = DIRECTION ( 'NONE',  ( -0.0000000000000000000, -1.000000000000000000, -0.0000000000000000000 ) ) ;
#133 = DIRECTION ( 'NONE',  ( 0.0000000000000000000, 1.000000000000000000, 0.0000000000000000000 ) ) ;
#134 = DIRECTION ( 'NONE',  ( 0.0000000000000000000, 0.0000000000000000000, 1.000000000000000000 ) ) ;
#135 = CARTESIAN_POINT ( 'NONE',  ( 0.0000000000000000000, 0.0000000000000000000, 0.0000000000000000000 ) ) ;
#136 = DIRECTION ( 'NONE',  ( 0.0000000000000000000, 1.000000000000000000, 0.0000000000000000000 ) ) ;
#137 = MECHANICAL_DESIGN_GEOMETRIC_PRESENTATION_REPRESENTATION (  '', ( #139 ), #3 ) ;
#138 = PRESENTATION_LAYER_ASSIGNMENT (  '', '', ( #139 ) ) ;
#139 = STYLED_ITEM ( 'NONE', ( #74 ), #56 ) ;
#140 = LENGTH_MEASURE_WITH_UNIT ( LENGTH_MEASURE( 0.02539999999999999900 ), #75 );
#141 = AXIS2_PLACEMENT_3D ( 'NONE', #79, #80, #81 ) ;
#142 = MECHANICAL_DESIGN_GEOMETRIC_PRESENTATION_REPRESENTATION (  '', ( #13 ), #1 ) ;
#143 = LENGTH_MEASURE_WITH_UNIT ( LENGTH_MEASURE( 0.02539999999999999900 ), #99 );
#144 = AXIS2_PLACEMENT_3D ( 'NONE', #129, #133, #134 ) ;
#145 = VECTOR ( 'NONE', #132, 39.37007874015748100 ) ;
#146 = LENGTH_MEASURE_WITH_UNIT ( LENGTH_MEASURE( 0.02539999999999999900 ), #95 );
#147 = PRESENTATION_LAYER_ASSIGNMENT (  '', '', ( #13 ) ) ;
#148 = AXIS2_PLACEMENT_3D ( 'NONE', #135, #136, #82 ) ;
#149 = VECTOR ( 'NONE', #86, 39.37007874015748100 ) ;
ENDSEC;
END-ISO-10303-21;
