ISO-10303-21;
HEADER;
FILE_DESCRIPTION (( 'STEP AP214' ),
    '1' );
FILE_NAME ('R250BN45.step',
    '2012-04-20T21:05:21',
    ( '' ),
    ( '' ),
    'SwSTEP 2.0',
    'SolidWorks 2012',
    '' );
FILE_SCHEMA (( 'AUTOMOTIVE_DESIGN' ));
ENDSEC;

DATA;
#1 = ADVANCED_FACE ( 'NONE', ( #146 ), #145, .T. ) ;
#2 = ADVANCED_BREP_SHAPE_REPRESENTATION ( 'R250BN45', ( #50, #148 ), #46 ) ;
#3 = UNCERTAINTY_MEASURE_WITH_UNIT (LENGTH_MEASURE( 1.000000000000000100E-005 ), #66, 'distance_accuracy_value', 'NONE');
#4 = UNCERTAINTY_MEASURE_WITH_UNIT (LENGTH_MEASURE( 1.000000000000000100E-005 ), #95, 'distance_accuracy_value', 'NONE');
#5 = UNCERTAINTY_MEASURE_WITH_UNIT (LENGTH_MEASURE( 1.000000000000000100E-005 ), #76, 'distance_accuracy_value', 'NONE');
#6 = LENGTH_MEASURE_WITH_UNIT ( LENGTH_MEASURE( 0.02539999999999999900 ), #94 );
#7 = AXIS2_PLACEMENT_3D ( 'NONE', #84, #85, #86 ) ;
#8 = FACE_OUTER_BOUND ( 'NONE', #109, .T. ) ;
#9 = AXIS2_PLACEMENT_3D ( 'NONE', #128, #129, #130 ) ;
#10 = MECHANICAL_DESIGN_GEOMETRIC_PRESENTATION_REPRESENTATION (  '', ( #15 ), #45 ) ;
#11 = AXIS2_PLACEMENT_3D ( 'NONE', #137, #82, #83 ) ;
#12 = AXIS2_PLACEMENT_3D ( 'NONE', #134, #135, #136 ) ;
#13 = VECTOR ( 'NONE', #81, 39.37007874015748100 ) ;
#14 = PRESENTATION_LAYER_ASSIGNMENT (  '', '', ( #15 ) ) ;
#15 = STYLED_ITEM ( 'NONE', ( #93 ), #50 ) ;
#16 = APPLICATION_CONTEXT ( 'automotive_design' ) ;
#17 = APPLICATION_CONTEXT ( 'automotive_design' ) ;
#18 = EDGE_CURVE ( 'NONE', #110, #112, #117, .T. ) ;
#19 = EDGE_CURVE ( 'NONE', #110, #111, #23, .T. ) ;
#20 = ADVANCED_FACE ( 'NONE', ( #44 ), #123, .F. ) ;
#21 = ADVANCED_FACE ( 'NONE', ( #41 ), #127, .T. ) ;
#22 = ADVANCED_FACE ( 'NONE', ( #8 ), #40, .T. ) ;
#23 = CIRCLE ( 'NONE', #147, 0.1250000000000000000 ) ;
#24 = CIRCLE ( 'NONE', #11, 0.1250000000000000000 ) ;
#25 = CIRCLE ( 'NONE', #12, 0.1250000000000000000 ) ;
#26 = CIRCLE ( 'NONE', #7, 0.1250000000000000000 ) ;
#27 = COLOUR_RGB ( '',0.5686274509803921400, 0.5686274509803921400, 0.5882352941176470800 ) ;
#28 = COLOUR_RGB ( '',0.5686274509803921400, 0.5686274509803921400, 0.5882352941176470800 ) ;
#29 = PRODUCT_RELATED_PRODUCT_CATEGORY ( 'part', '', ( #33 ) ) ;
#30 = DIMENSIONAL_EXPONENTS ( 1.000000000000000000, 0.0000000000000000000, 0.0000000000000000000, 0.0000000000000000000, 0.0000000000000000000, 0.0000000000000000000, 0.0000000000000000000 ) ;
#31 = DIMENSIONAL_EXPONENTS ( 1.000000000000000000, 0.0000000000000000000, 0.0000000000000000000, 0.0000000000000000000, 0.0000000000000000000, 0.0000000000000000000, 0.0000000000000000000 ) ;
#32 = DIMENSIONAL_EXPONENTS ( 1.000000000000000000, 0.0000000000000000000, 0.0000000000000000000, 0.0000000000000000000, 0.0000000000000000000, 0.0000000000000000000, 0.0000000000000000000 ) ;
#33 = PRODUCT ( 'R250BN45', 'R250BN45', '', ( #64 ) ) ;
#34 = PRODUCT_DEFINITION ( 'UNKNOWN', '', #149, #52 ) ;
#35 = EDGE_CURVE ( 'NONE', #112, #113, #25, .T. ) ;
#36 = EDGE_CURVE ( 'NONE', #111, #113, #79, .T. ) ;
#37 = EDGE_CURVE ( 'NONE', #111, #110, #24, .T. ) ;
#38 = EDGE_CURVE ( 'NONE', #113, #112, #26, .T. ) ;
#39 = AXIS2_PLACEMENT_3D ( 'NONE', #131, #132, #133 ) ;
#40 = CYLINDRICAL_SURFACE ( 'NONE', #39, 0.1250000000000000000 ) ;
#41 = FACE_OUTER_BOUND ( 'NONE', #106, .T. ) ;
#42 = VECTOR ( 'NONE', #119, 39.37007874015748100 ) ;
#43 = AXIS2_PLACEMENT_3D ( 'NONE', #124, #125, #126 ) ;
#44 = FACE_OUTER_BOUND ( 'NONE', #108, .T. ) ;
#45 =( GEOMETRIC_REPRESENTATION_CONTEXT ( 3 ) GLOBAL_UNCERTAINTY_ASSIGNED_CONTEXT ( ( #4 ) ) GLOBAL_UNIT_ASSIGNED_CONTEXT ( ( #95, #96, #97 ) ) REPRESENTATION_CONTEXT ( 'NONE', 'WORKASPACE' ) );
#46 =( GEOMETRIC_REPRESENTATION_CONTEXT ( 3 ) GLOBAL_UNCERTAINTY_ASSIGNED_CONTEXT ( ( #3 ) ) GLOBAL_UNIT_ASSIGNED_CONTEXT ( ( #66, #67, #68 ) ) REPRESENTATION_CONTEXT ( 'NONE', 'WORKASPACE' ) );
#47 =( GEOMETRIC_REPRESENTATION_CONTEXT ( 3 ) GLOBAL_UNCERTAINTY_ASSIGNED_CONTEXT ( ( #5 ) ) GLOBAL_UNIT_ASSIGNED_CONTEXT ( ( #76, #77, #78 ) ) REPRESENTATION_CONTEXT ( 'NONE', 'WORKASPACE' ) );
#48 = ORIENTED_EDGE ( 'NONE', *, *, #36, .T. ) ;
#49 = ORIENTED_EDGE ( 'NONE', *, *, #37, .F. ) ;
#50 = MANIFOLD_SOLID_BREP ( 'Boss-Extrude1', #143 ) ;
#51 = PRODUCT_DEFINITION_SHAPE ( 'NONE', 'NONE',  #34 ) ;
#52 = PRODUCT_DEFINITION_CONTEXT ( 'detailed design', #17, 'design' ) ;
#53 = ORIENTED_EDGE ( 'NONE', *, *, #37, .T. ) ;
#54 = ORIENTED_EDGE ( 'NONE', *, *, #38, .T. ) ;
#55 = ORIENTED_EDGE ( 'NONE', *, *, #35, .T. ) ;
#56 = ORIENTED_EDGE ( 'NONE', *, *, #18, .T. ) ;
#57 = ORIENTED_EDGE ( 'NONE', *, *, #36, .F. ) ;
#58 = ORIENTED_EDGE ( 'NONE', *, *, #18, .F. ) ;
#59 = CARTESIAN_POINT ( 'NONE',  ( 0.0000000000000000000, 0.0000000000000000000, 0.0000000000000000000 ) ) ;
#60 = DIRECTION ( 'NONE',  ( 0.0000000000000000000, 0.0000000000000000000, 1.000000000000000000 ) ) ;
#61 = DIRECTION ( 'NONE',  ( 1.000000000000000000, 0.0000000000000000000, 0.0000000000000000000 ) ) ;
#62 = SHAPE_DEFINITION_REPRESENTATION ( #51, #2 ) ;
#63 = APPLICATION_PROTOCOL_DEFINITION ( 'draft international standard', 'automotive_design', 1998, #16 ) ;
#64 = PRODUCT_CONTEXT ( 'NONE', #16, 'mechanical' ) ;
#65 = APPLICATION_PROTOCOL_DEFINITION ( 'draft international standard', 'automotive_design', 1998, #17 ) ;
#66 =( CONVERSION_BASED_UNIT ( 'INCH', #140 ) LENGTH_UNIT ( ) NAMED_UNIT ( #30 ) );
#67 =( NAMED_UNIT ( * ) PLANE_ANGLE_UNIT ( ) SI_UNIT ( $, .RADIAN. ) );
#68 =( NAMED_UNIT ( * ) SI_UNIT ( $, .STERADIAN. ) SOLID_ANGLE_UNIT ( ) );
#69 = FILL_AREA_STYLE_COLOUR ( '', #27 ) ;
#70 = FILL_AREA_STYLE ('',( #69 ) ) ;
#71 = SURFACE_STYLE_FILL_AREA ( #70 ) ;
#72 = SURFACE_SIDE_STYLE ('',( #71 ) ) ;
#73 = SURFACE_STYLE_USAGE ( .BOTH. , #72 ) ;
#74 = PRESENTATION_STYLE_ASSIGNMENT (( #73 ) ) ;
#75 =( LENGTH_UNIT ( ) NAMED_UNIT ( * ) SI_UNIT ( $, .METRE. ) );
#76 =( CONVERSION_BASED_UNIT ( 'INCH', #142 ) LENGTH_UNIT ( ) NAMED_UNIT ( #32 ) );
#77 =( NAMED_UNIT ( * ) PLANE_ANGLE_UNIT ( ) SI_UNIT ( $, .RADIAN. ) );
#78 =( NAMED_UNIT ( * ) SI_UNIT ( $, .STERADIAN. ) SOLID_ANGLE_UNIT ( ) );
#79 = LINE ( 'NONE', #80, #13 ) ;
#80 = CARTESIAN_POINT ( 'NONE',  ( 0.0000000000000000000, 0.2500000000000000000, -0.1250000000000000000 ) ) ;
#81 = DIRECTION ( 'NONE',  ( -0.0000000000000000000, -1.000000000000000000, -0.0000000000000000000 ) ) ;
#82 = DIRECTION ( 'NONE',  ( 0.0000000000000000000, 1.000000000000000000, 0.0000000000000000000 ) ) ;
#83 = DIRECTION ( 'NONE',  ( 0.0000000000000000000, 0.0000000000000000000, 1.000000000000000000 ) ) ;
#84 = CARTESIAN_POINT ( 'NONE',  ( 0.0000000000000000000, 0.0000000000000000000, 0.0000000000000000000 ) ) ;
#85 = DIRECTION ( 'NONE',  ( 0.0000000000000000000, 1.000000000000000000, 0.0000000000000000000 ) ) ;
#86 = DIRECTION ( 'NONE',  ( 0.0000000000000000000, 0.0000000000000000000, 1.000000000000000000 ) ) ;
#87 = CARTESIAN_POINT ( 'NONE',  ( 1.530808498934191500E-017, 0.2500000000000000000, 0.1250000000000000000 ) ) ;
#88 = FILL_AREA_STYLE_COLOUR ( '', #28 ) ;
#89 = FILL_AREA_STYLE ('',( #88 ) ) ;
#90 = SURFACE_STYLE_FILL_AREA ( #89 ) ;
#91 = SURFACE_SIDE_STYLE ('',( #90 ) ) ;
#92 = SURFACE_STYLE_USAGE ( .BOTH. , #91 ) ;
#93 = PRESENTATION_STYLE_ASSIGNMENT (( #92 ) ) ;
#94 =( LENGTH_UNIT ( ) NAMED_UNIT ( * ) SI_UNIT ( $, .METRE. ) );
#95 =( CONVERSION_BASED_UNIT ( 'INCH', #6 ) LENGTH_UNIT ( ) NAMED_UNIT ( #31 ) );
#96 =( NAMED_UNIT ( * ) PLANE_ANGLE_UNIT ( ) SI_UNIT ( $, .RADIAN. ) );
#97 =( NAMED_UNIT ( * ) SI_UNIT ( $, .STERADIAN. ) SOLID_ANGLE_UNIT ( ) );
#98 = CARTESIAN_POINT ( 'NONE',  ( 0.0000000000000000000, 0.2500000000000000000, -0.1250000000000000000 ) ) ;
#99 = CARTESIAN_POINT ( 'NONE',  ( 1.530808498934191500E-017, 0.0000000000000000000, 0.1250000000000000000 ) ) ;
#100 = CARTESIAN_POINT ( 'NONE',  ( 0.0000000000000000000, 0.0000000000000000000, -0.1250000000000000000 ) ) ;
#101 =( LENGTH_UNIT ( ) NAMED_UNIT ( * ) SI_UNIT ( $, .METRE. ) );
#102 = ORIENTED_EDGE ( 'NONE', *, *, #19, .T. ) ;
#103 = ORIENTED_EDGE ( 'NONE', *, *, #38, .F. ) ;
#104 = ORIENTED_EDGE ( 'NONE', *, *, #35, .F. ) ;
#105 = ORIENTED_EDGE ( 'NONE', *, *, #19, .F. ) ;
#106 = EDGE_LOOP ( 'NONE', ( #53, #102 ) ) ;
#107 = EDGE_LOOP ( 'NONE', ( #105, #56, #55, #57 ) ) ;
#108 = EDGE_LOOP ( 'NONE', ( #103, #104 ) ) ;
#109 = EDGE_LOOP ( 'NONE', ( #58, #49, #48, #54 ) ) ;
#110 = VERTEX_POINT ( 'NONE', #87 ) ;
#111 = VERTEX_POINT ( 'NONE', #98 ) ;
#112 = VERTEX_POINT ( 'NONE', #99 ) ;
#113 = VERTEX_POINT ( 'NONE', #100 ) ;
#114 = CARTESIAN_POINT ( 'NONE',  ( 0.0000000000000000000, 0.2500000000000000000, 0.0000000000000000000 ) ) ;
#115 = DIRECTION ( 'NONE',  ( -0.0000000000000000000, -1.000000000000000000, -0.0000000000000000000 ) ) ;
#116 = DIRECTION ( 'NONE',  ( 0.0000000000000000000, 0.0000000000000000000, -1.000000000000000000 ) ) ;
#117 = LINE ( 'NONE', #118, #42 ) ;
#118 = CARTESIAN_POINT ( 'NONE',  ( 1.530808498934191500E-017, 0.2500000000000000000, 0.1250000000000000000 ) ) ;
#119 = DIRECTION ( 'NONE',  ( -0.0000000000000000000, -1.000000000000000000, -0.0000000000000000000 ) ) ;
#120 = CARTESIAN_POINT ( 'NONE',  ( 0.0000000000000000000, 0.2500000000000000000, 0.0000000000000000000 ) ) ;
#121 = DIRECTION ( 'NONE',  ( 0.0000000000000000000, 1.000000000000000000, 0.0000000000000000000 ) ) ;
#122 = DIRECTION ( 'NONE',  ( 0.0000000000000000000, 0.0000000000000000000, 1.000000000000000000 ) ) ;
#123 = PLANE ( 'NONE',  #43 ) ;
#124 = CARTESIAN_POINT ( 'NONE',  ( 0.0000000000000000000, 0.0000000000000000000, 0.0000000000000000000 ) ) ;
#125 = DIRECTION ( 'NONE',  ( 0.0000000000000000000, 1.000000000000000000, 0.0000000000000000000 ) ) ;
#126 = DIRECTION ( 'NONE',  ( 0.0000000000000000000, -0.0000000000000000000, 1.000000000000000000 ) ) ;
#127 = PLANE ( 'NONE',  #9 ) ;
#128 = CARTESIAN_POINT ( 'NONE',  ( 0.0000000000000000000, 0.2500000000000000000, 0.0000000000000000000 ) ) ;
#129 = DIRECTION ( 'NONE',  ( 0.0000000000000000000, 1.000000000000000000, 0.0000000000000000000 ) ) ;
#130 = DIRECTION ( 'NONE',  ( 0.0000000000000000000, -0.0000000000000000000, 1.000000000000000000 ) ) ;
#131 = CARTESIAN_POINT ( 'NONE',  ( 0.0000000000000000000, 0.2500000000000000000, 0.0000000000000000000 ) ) ;
#132 = DIRECTION ( 'NONE',  ( -0.0000000000000000000, -1.000000000000000000, -0.0000000000000000000 ) ) ;
#133 = DIRECTION ( 'NONE',  ( 0.0000000000000000000, 0.0000000000000000000, -1.000000000000000000 ) ) ;
#134 = CARTESIAN_POINT ( 'NONE',  ( 0.0000000000000000000, 0.0000000000000000000, 0.0000000000000000000 ) ) ;
#135 = DIRECTION ( 'NONE',  ( 0.0000000000000000000, 1.000000000000000000, 0.0000000000000000000 ) ) ;
#136 = DIRECTION ( 'NONE',  ( 0.0000000000000000000, 0.0000000000000000000, 1.000000000000000000 ) ) ;
#137 = CARTESIAN_POINT ( 'NONE',  ( 0.0000000000000000000, 0.2500000000000000000, 0.0000000000000000000 ) ) ;
#138 = MECHANICAL_DESIGN_GEOMETRIC_PRESENTATION_REPRESENTATION (  '', ( #141 ), #47 ) ;
#139 = PRESENTATION_LAYER_ASSIGNMENT (  '', '', ( #141 ) ) ;
#140 = LENGTH_MEASURE_WITH_UNIT ( LENGTH_MEASURE( 0.02539999999999999900 ), #101 );
#141 = STYLED_ITEM ( 'NONE', ( #74 ), #2 ) ;
#142 = LENGTH_MEASURE_WITH_UNIT ( LENGTH_MEASURE( 0.02539999999999999900 ), #75 );
#143 = CLOSED_SHELL ( 'NONE', ( #1, #22, #21, #20 ) ) ;
#144 = AXIS2_PLACEMENT_3D ( 'NONE', #114, #115, #116 ) ;
#145 = CYLINDRICAL_SURFACE ( 'NONE', #144, 0.1250000000000000000 ) ;
#146 = FACE_OUTER_BOUND ( 'NONE', #107, .T. ) ;
#147 = AXIS2_PLACEMENT_3D ( 'NONE', #120, #121, #122 ) ;
#148 = AXIS2_PLACEMENT_3D ( 'NONE', #59, #60, #61 ) ;
#149 = PRODUCT_DEFINITION_FORMATION_WITH_SPECIFIED_SOURCE ( 'ANY', '', #33, .NOT_KNOWN. ) ;
ENDSEC;
END-ISO-10303-21;
