ISO-10303-21;
HEADER;
FILE_DESCRIPTION (( 'STEP AP214' ),
    '1' );
FILE_NAME ('R3000D.step',
    '2012-04-20T21:05:24',
    ( '' ),
    ( '' ),
    'SwSTEP 2.0',
    'SolidWorks 2012',
    '' );
FILE_SCHEMA (( 'AUTOMOTIVE_DESIGN' ));
ENDSEC;

DATA;
#1 = MECHANICAL_DESIGN_GEOMETRIC_PRESENTATION_REPRESENTATION (  '', ( #135 ), #7 ) ;
#2 = AXIS2_PLACEMENT_3D ( 'NONE', #53, #54, #55 ) ;
#3 = PRESENTATION_LAYER_ASSIGNMENT (  '', '', ( #135 ) ) ;
#4 = LENGTH_MEASURE_WITH_UNIT ( LENGTH_MEASURE( 0.02539999999999999900 ), #70 );
#5 =( GEOMETRIC_REPRESENTATION_CONTEXT ( 3 ) GLOBAL_UNCERTAINTY_ASSIGNED_CONTEXT ( ( #39 ) ) GLOBAL_UNIT_ASSIGNED_CONTEXT ( ( #76, #77, #78 ) ) REPRESENTATION_CONTEXT ( 'NONE', 'WORKASPACE' ) );
#6 =( GEOMETRIC_REPRESENTATION_CONTEXT ( 3 ) GLOBAL_UNCERTAINTY_ASSIGNED_CONTEXT ( ( #38 ) ) GLOBAL_UNIT_ASSIGNED_CONTEXT ( ( #61, #62, #63 ) ) REPRESENTATION_CONTEXT ( 'NONE', 'WORKASPACE' ) );
#7 =( GEOMETRIC_REPRESENTATION_CONTEXT ( 3 ) GLOBAL_UNCERTAINTY_ASSIGNED_CONTEXT ( ( #37 ) ) GLOBAL_UNIT_ASSIGNED_CONTEXT ( ( #71, #72, #73 ) ) REPRESENTATION_CONTEXT ( 'NONE', 'WORKASPACE' ) );
#8 = ORIENTED_EDGE ( 'NONE', *, *, #18, .T. ) ;
#9 = PRODUCT_DEFINITION_FORMATION_WITH_SPECIFIED_SOURCE ( 'ANY', '', #44, .NOT_KNOWN. ) ;
#10 = EDGE_LOOP ( 'NONE', ( #50, #51 ) ) ;
#11 = AXIS2_PLACEMENT_3D ( 'NONE', #115, #116, #117 ) ;
#12 = AXIS2_PLACEMENT_3D ( 'NONE', #123, #124, #125 ) ;
#13 = AXIS2_PLACEMENT_3D ( 'NONE', #112, #113, #114 ) ;
#14 = CYLINDRICAL_SURFACE ( 'NONE', #11, 0.2500000000000000000 ) ;
#15 = CLOSED_SHELL ( 'NONE', ( #19, #22, #21, #20 ) ) ;
#16 = FACE_OUTER_BOUND ( 'NONE', #98, .T. ) ;
#17 = FACE_OUTER_BOUND ( 'NONE', #100, .T. ) ;
#18 = EDGE_CURVE ( 'NONE', #111, #110, #23, .T. ) ;
#19 = ADVANCED_FACE ( 'NONE', ( #17 ), #14, .T. ) ;
#20 = ADVANCED_FACE ( 'NONE', ( #16 ), #118, .F. ) ;
#21 = ADVANCED_FACE ( 'NONE', ( #148 ), #122, .T. ) ;
#22 = ADVANCED_FACE ( 'NONE', ( #145 ), #139, .T. ) ;
#23 = CIRCLE ( 'NONE', #13, 0.2500000000000000000 ) ;
#24 = CIRCLE ( 'NONE', #146, 0.2500000000000000000 ) ;
#25 = COLOUR_RGB ( '',0.5686274509803921400, 0.5686274509803921400, 0.5882352941176470800 ) ;
#26 = CIRCLE ( 'NONE', #134, 0.2500000000000000000 ) ;
#27 = CIRCLE ( 'NONE', #142, 0.2500000000000000000 ) ;
#28 = PRODUCT_RELATED_PRODUCT_CATEGORY ( 'part', '', ( #44 ) ) ;
#29 = PRODUCT_DEFINITION ( 'UNKNOWN', '', #9, #33 ) ;
#30 = APPLICATION_CONTEXT ( 'automotive_design' ) ;
#31 = APPLICATION_CONTEXT ( 'automotive_design' ) ;
#32 = MANIFOLD_SOLID_BREP ( 'Boss-Extrude1', #15 ) ;
#33 = PRODUCT_DEFINITION_CONTEXT ( 'detailed design', #31, 'design' ) ;
#34 = PRODUCT_DEFINITION_SHAPE ( 'NONE', 'NONE',  #29 ) ;
#35 = EDGE_CURVE ( 'NONE', #109, #108, #24, .T. ) ;
#36 = ORIENTED_EDGE ( 'NONE', *, *, #48, .F. ) ;
#37 = UNCERTAINTY_MEASURE_WITH_UNIT (LENGTH_MEASURE( 1.000000000000000100E-005 ), #71, 'distance_accuracy_value', 'NONE');
#38 = UNCERTAINTY_MEASURE_WITH_UNIT (LENGTH_MEASURE( 1.000000000000000100E-005 ), #61, 'distance_accuracy_value', 'NONE');
#39 = UNCERTAINTY_MEASURE_WITH_UNIT (LENGTH_MEASURE( 1.000000000000000100E-005 ), #76, 'distance_accuracy_value', 'NONE');
#40 = ADVANCED_BREP_SHAPE_REPRESENTATION ( 'R3000D', ( #32, #2 ), #6 ) ;
#41 = DIMENSIONAL_EXPONENTS ( 1.000000000000000000, 0.0000000000000000000, 0.0000000000000000000, 0.0000000000000000000, 0.0000000000000000000, 0.0000000000000000000, 0.0000000000000000000 ) ;
#42 = DIMENSIONAL_EXPONENTS ( 1.000000000000000000, 0.0000000000000000000, 0.0000000000000000000, 0.0000000000000000000, 0.0000000000000000000, 0.0000000000000000000, 0.0000000000000000000 ) ;
#43 = DIMENSIONAL_EXPONENTS ( 1.000000000000000000, 0.0000000000000000000, 0.0000000000000000000, 0.0000000000000000000, 0.0000000000000000000, 0.0000000000000000000, 0.0000000000000000000 ) ;
#44 = PRODUCT ( 'R3000D', 'R3000D', '', ( #58 ) ) ;
#45 = COLOUR_RGB ( '',0.5686274509803921400, 0.5686274509803921400, 0.5882352941176470800 ) ;
#46 = EDGE_CURVE ( 'NONE', #108, #110, #83, .T. ) ;
#47 = EDGE_CURVE ( 'NONE', #108, #109, #26, .T. ) ;
#48 = EDGE_CURVE ( 'NONE', #110, #111, #27, .T. ) ;
#49 = EDGE_CURVE ( 'NONE', #109, #111, #92, .T. ) ;
#50 = ORIENTED_EDGE ( 'NONE', *, *, #35, .T. ) ;
#51 = ORIENTED_EDGE ( 'NONE', *, *, #47, .T. ) ;
#52 = ORIENTED_EDGE ( 'NONE', *, *, #18, .F. ) ;
#53 = CARTESIAN_POINT ( 'NONE',  ( 0.0000000000000000000, 0.0000000000000000000, 0.0000000000000000000 ) ) ;
#54 = DIRECTION ( 'NONE',  ( 0.0000000000000000000, 0.0000000000000000000, 1.000000000000000000 ) ) ;
#55 = DIRECTION ( 'NONE',  ( 1.000000000000000000, 0.0000000000000000000, 0.0000000000000000000 ) ) ;
#56 = SHAPE_DEFINITION_REPRESENTATION ( #34, #40 ) ;
#57 = APPLICATION_PROTOCOL_DEFINITION ( 'draft international standard', 'automotive_design', 1998, #30 ) ;
#58 = PRODUCT_CONTEXT ( 'NONE', #30, 'mechanical' ) ;
#59 = APPLICATION_PROTOCOL_DEFINITION ( 'draft international standard', 'automotive_design', 1998, #31 ) ;
#60 =( LENGTH_UNIT ( ) NAMED_UNIT ( * ) SI_UNIT ( $, .METRE. ) );
#61 =( CONVERSION_BASED_UNIT ( 'INCH', #138 ) LENGTH_UNIT ( ) NAMED_UNIT ( #41 ) );
#62 =( NAMED_UNIT ( * ) PLANE_ANGLE_UNIT ( ) SI_UNIT ( $, .RADIAN. ) );
#63 =( NAMED_UNIT ( * ) SI_UNIT ( $, .STERADIAN. ) SOLID_ANGLE_UNIT ( ) );
#64 = FILL_AREA_STYLE_COLOUR ( '', #45 ) ;
#65 = FILL_AREA_STYLE ('',( #64 ) ) ;
#66 = SURFACE_STYLE_FILL_AREA ( #65 ) ;
#67 = SURFACE_SIDE_STYLE ('',( #66 ) ) ;
#68 = SURFACE_STYLE_USAGE ( .BOTH. , #67 ) ;
#69 = PRESENTATION_STYLE_ASSIGNMENT (( #68 ) ) ;
#70 =( LENGTH_UNIT ( ) NAMED_UNIT ( * ) SI_UNIT ( $, .METRE. ) );
#71 =( CONVERSION_BASED_UNIT ( 'INCH', #4 ) LENGTH_UNIT ( ) NAMED_UNIT ( #43 ) );
#72 =( NAMED_UNIT ( * ) PLANE_ANGLE_UNIT ( ) SI_UNIT ( $, .RADIAN. ) );
#73 =( NAMED_UNIT ( * ) SI_UNIT ( $, .STERADIAN. ) SOLID_ANGLE_UNIT ( ) );
#74 = PRESENTATION_STYLE_ASSIGNMENT (( #133 ) ) ;
#75 =( LENGTH_UNIT ( ) NAMED_UNIT ( * ) SI_UNIT ( $, .METRE. ) );
#76 =( CONVERSION_BASED_UNIT ( 'INCH', #149 ) LENGTH_UNIT ( ) NAMED_UNIT ( #42 ) );
#77 =( NAMED_UNIT ( * ) PLANE_ANGLE_UNIT ( ) SI_UNIT ( $, .RADIAN. ) );
#78 =( NAMED_UNIT ( * ) SI_UNIT ( $, .STERADIAN. ) SOLID_ANGLE_UNIT ( ) );
#79 = CARTESIAN_POINT ( 'NONE',  ( 0.0000000000000000000, 3.000000000000000400, 0.0000000000000000000 ) ) ;
#80 = DIRECTION ( 'NONE',  ( 0.0000000000000000000, 1.000000000000000000, 0.0000000000000000000 ) ) ;
#81 = DIRECTION ( 'NONE',  ( 0.0000000000000000000, 0.0000000000000000000, 1.000000000000000000 ) ) ;
#82 = CARTESIAN_POINT ( 'NONE',  ( 0.0000000000000000000, 3.000000000000000400, 0.0000000000000000000 ) ) ;
#83 = LINE ( 'NONE', #84, #137 ) ;
#84 = CARTESIAN_POINT ( 'NONE',  ( 3.061616997868382400E-017, 3.000000000000000400, 0.2500000000000000000 ) ) ;
#85 = DIRECTION ( 'NONE',  ( -0.0000000000000000000, -1.000000000000000000, -0.0000000000000000000 ) ) ;
#86 = DIRECTION ( 'NONE',  ( 0.0000000000000000000, 1.000000000000000000, 0.0000000000000000000 ) ) ;
#87 = DIRECTION ( 'NONE',  ( 0.0000000000000000000, 0.0000000000000000000, 1.000000000000000000 ) ) ;
#88 = CARTESIAN_POINT ( 'NONE',  ( 0.0000000000000000000, 0.0000000000000000000, 0.0000000000000000000 ) ) ;
#89 = DIRECTION ( 'NONE',  ( 0.0000000000000000000, 1.000000000000000000, 0.0000000000000000000 ) ) ;
#90 = DIRECTION ( 'NONE',  ( 0.0000000000000000000, 0.0000000000000000000, 1.000000000000000000 ) ) ;
#91 = CARTESIAN_POINT ( 'NONE',  ( 3.061616997868382400E-017, 3.000000000000000400, 0.2500000000000000000 ) ) ;
#92 = LINE ( 'NONE', #93, #136 ) ;
#93 = CARTESIAN_POINT ( 'NONE',  ( 0.0000000000000000000, 3.000000000000000400, -0.2500000000000000000 ) ) ;
#94 = DIRECTION ( 'NONE',  ( -0.0000000000000000000, -1.000000000000000000, -0.0000000000000000000 ) ) ;
#95 = CARTESIAN_POINT ( 'NONE',  ( 0.0000000000000000000, 3.000000000000000400, -0.2500000000000000000 ) ) ;
#96 = CARTESIAN_POINT ( 'NONE',  ( 3.061616997868382400E-017, 0.0000000000000000000, 0.2500000000000000000 ) ) ;
#97 = CARTESIAN_POINT ( 'NONE',  ( 0.0000000000000000000, 0.0000000000000000000, -0.2500000000000000000 ) ) ;
#98 = EDGE_LOOP ( 'NONE', ( #52, #36 ) ) ;
#99 = EDGE_LOOP ( 'NONE', ( #105, #107, #106, #8 ) ) ;
#100 = EDGE_LOOP ( 'NONE', ( #101, #103, #102, #104 ) ) ;
#101 = ORIENTED_EDGE ( 'NONE', *, *, #47, .F. ) ;
#102 = ORIENTED_EDGE ( 'NONE', *, *, #48, .T. ) ;
#103 = ORIENTED_EDGE ( 'NONE', *, *, #46, .T. ) ;
#104 = ORIENTED_EDGE ( 'NONE', *, *, #49, .F. ) ;
#105 = ORIENTED_EDGE ( 'NONE', *, *, #46, .F. ) ;
#106 = ORIENTED_EDGE ( 'NONE', *, *, #49, .T. ) ;
#107 = ORIENTED_EDGE ( 'NONE', *, *, #35, .F. ) ;
#108 = VERTEX_POINT ( 'NONE', #91 ) ;
#109 = VERTEX_POINT ( 'NONE', #95 ) ;
#110 = VERTEX_POINT ( 'NONE', #96 ) ;
#111 = VERTEX_POINT ( 'NONE', #97 ) ;
#112 = CARTESIAN_POINT ( 'NONE',  ( 0.0000000000000000000, 0.0000000000000000000, 0.0000000000000000000 ) ) ;
#113 = DIRECTION ( 'NONE',  ( 0.0000000000000000000, 1.000000000000000000, 0.0000000000000000000 ) ) ;
#114 = DIRECTION ( 'NONE',  ( 0.0000000000000000000, 0.0000000000000000000, 1.000000000000000000 ) ) ;
#115 = CARTESIAN_POINT ( 'NONE',  ( 0.0000000000000000000, 3.000000000000000400, 0.0000000000000000000 ) ) ;
#116 = DIRECTION ( 'NONE',  ( -0.0000000000000000000, -1.000000000000000000, -0.0000000000000000000 ) ) ;
#117 = DIRECTION ( 'NONE',  ( 0.0000000000000000000, 0.0000000000000000000, -1.000000000000000000 ) ) ;
#118 = PLANE ( 'NONE',  #143 ) ;
#119 = CARTESIAN_POINT ( 'NONE',  ( 0.0000000000000000000, 0.0000000000000000000, 0.0000000000000000000 ) ) ;
#120 = DIRECTION ( 'NONE',  ( 0.0000000000000000000, 1.000000000000000000, 0.0000000000000000000 ) ) ;
#121 = DIRECTION ( 'NONE',  ( 0.0000000000000000000, -0.0000000000000000000, 1.000000000000000000 ) ) ;
#122 = PLANE ( 'NONE',  #12 ) ;
#123 = CARTESIAN_POINT ( 'NONE',  ( 0.0000000000000000000, 3.000000000000000400, 0.0000000000000000000 ) ) ;
#124 = DIRECTION ( 'NONE',  ( 0.0000000000000000000, 1.000000000000000000, 0.0000000000000000000 ) ) ;
#125 = DIRECTION ( 'NONE',  ( 0.0000000000000000000, -0.0000000000000000000, 1.000000000000000000 ) ) ;
#126 = CARTESIAN_POINT ( 'NONE',  ( 0.0000000000000000000, 3.000000000000000400, 0.0000000000000000000 ) ) ;
#127 = DIRECTION ( 'NONE',  ( -0.0000000000000000000, -1.000000000000000000, -0.0000000000000000000 ) ) ;
#128 = DIRECTION ( 'NONE',  ( 0.0000000000000000000, 0.0000000000000000000, -1.000000000000000000 ) ) ;
#129 = FILL_AREA_STYLE_COLOUR ( '', #25 ) ;
#130 = FILL_AREA_STYLE ('',( #129 ) ) ;
#131 = SURFACE_STYLE_FILL_AREA ( #130 ) ;
#132 = SURFACE_SIDE_STYLE ('',( #131 ) ) ;
#133 = SURFACE_STYLE_USAGE ( .BOTH. , #132 ) ;
#134 = AXIS2_PLACEMENT_3D ( 'NONE', #82, #86, #87 ) ;
#135 = STYLED_ITEM ( 'NONE', ( #69 ), #40 ) ;
#136 = VECTOR ( 'NONE', #94, 39.37007874015748100 ) ;
#137 = VECTOR ( 'NONE', #85, 39.37007874015748100 ) ;
#138 = LENGTH_MEASURE_WITH_UNIT ( LENGTH_MEASURE( 0.02539999999999999900 ), #60 );
#139 = CYLINDRICAL_SURFACE ( 'NONE', #141, 0.2500000000000000000 ) ;
#140 = MECHANICAL_DESIGN_GEOMETRIC_PRESENTATION_REPRESENTATION (  '', ( #144 ), #5 ) ;
#141 = AXIS2_PLACEMENT_3D ( 'NONE', #126, #127, #128 ) ;
#142 = AXIS2_PLACEMENT_3D ( 'NONE', #88, #89, #90 ) ;
#143 = AXIS2_PLACEMENT_3D ( 'NONE', #119, #120, #121 ) ;
#144 = STYLED_ITEM ( 'NONE', ( #74 ), #32 ) ;
#145 = FACE_OUTER_BOUND ( 'NONE', #99, .T. ) ;
#146 = AXIS2_PLACEMENT_3D ( 'NONE', #79, #80, #81 ) ;
#147 = PRESENTATION_LAYER_ASSIGNMENT (  '', '', ( #144 ) ) ;
#148 = FACE_OUTER_BOUND ( 'NONE', #10, .T. ) ;
#149 = LENGTH_MEASURE_WITH_UNIT ( LENGTH_MEASURE( 0.02539999999999999900 ), #75 );
ENDSEC;
END-ISO-10303-21;
