ISO-10303-21;
HEADER;
FILE_DESCRIPTION (( 'STEP AP214' ),
    '1' );
FILE_NAME ('R375C.step',
    '2012-04-20T21:05:43',
    ( '' ),
    ( '' ),
    'SwSTEP 2.0',
    'SolidWorks 2012',
    '' );
FILE_SCHEMA (( 'AUTOMOTIVE_DESIGN' ));
ENDSEC;

DATA;
#1 = LENGTH_MEASURE_WITH_UNIT ( LENGTH_MEASURE( 0.02539999999999999900 ), #61 );
#2 = MECHANICAL_DESIGN_GEOMETRIC_PRESENTATION_REPRESENTATION (  '', ( #4 ), #120 ) ;
#3 = PRESENTATION_LAYER_ASSIGNMENT (  '', '', ( #4 ) ) ;
#4 = STYLED_ITEM ( 'NONE', ( #60 ), #147 ) ;
#5 = AXIS2_PLACEMENT_3D ( 'NONE', #52, #53, #54 ) ;
#6 = PLANE ( 'NONE',  #118 ) ;
#7 = VERTEX_POINT ( 'NONE', #102 ) ;
#8 = VERTEX_POINT ( 'NONE', #101 ) ;
#9 = VERTEX_POINT ( 'NONE', #100 ) ;
#10 = VERTEX_POINT ( 'NONE', #99 ) ;
#11 = ORIENTED_EDGE ( 'NONE', *, *, #134, .F. ) ;
#12 = ORIENTED_EDGE ( 'NONE', *, *, #137, .F. ) ;
#13 = ORIENTED_EDGE ( 'NONE', *, *, #138, .F. ) ;
#14 = ORIENTED_EDGE ( 'NONE', *, *, #134, .T. ) ;
#15 = ORIENTED_EDGE ( 'NONE', *, *, #136, .T. ) ;
#16 = ORIENTED_EDGE ( 'NONE', *, *, #135, .T. ) ;
#17 = ORIENTED_EDGE ( 'NONE', *, *, #133, .T. ) ;
#18 = ORIENTED_EDGE ( 'NONE', *, *, #136, .F. ) ;
#19 = ORIENTED_EDGE ( 'NONE', *, *, #133, .F. ) ;
#20 = ORIENTED_EDGE ( 'NONE', *, *, #135, .F. ) ;
#21 = ORIENTED_EDGE ( 'NONE', *, *, #137, .T. ) ;
#22 = ORIENTED_EDGE ( 'NONE', *, *, #138, .T. ) ;
#23 = EDGE_LOOP ( 'NONE', ( #19, #12, #15, #22 ) ) ;
#24 = EDGE_LOOP ( 'NONE', ( #11, #17, #16, #18 ) ) ;
#25 = EDGE_LOOP ( 'NONE', ( #21, #14 ) ) ;
#26 = EDGE_LOOP ( 'NONE', ( #13, #20 ) ) ;
#27 = AXIS2_PLACEMENT_3D ( 'NONE', #95, #94, #93 ) ;
#28 = VECTOR ( 'NONE', #86, 39.37007874015748100 ) ;
#29 = AXIS2_PLACEMENT_3D ( 'NONE', #89, #46, #45 ) ;
#30 = AXIS2_PLACEMENT_3D ( 'NONE', #92, #91, #90 ) ;
#31 = STYLED_ITEM ( 'NONE', ( #75 ), #34 ) ;
#32 = PRESENTATION_LAYER_ASSIGNMENT (  '', '', ( #31 ) ) ;
#33 = LENGTH_MEASURE_WITH_UNIT ( LENGTH_MEASURE( 0.02539999999999999900 ), #65 );
#34 = ADVANCED_BREP_SHAPE_REPRESENTATION ( 'R375C', ( #147, #107 ), #121 ) ;
#35 = UNCERTAINTY_MEASURE_WITH_UNIT (LENGTH_MEASURE( 1.000000000000000100E-005 ), #77, 'distance_accuracy_value', 'NONE');
#36 = UNCERTAINTY_MEASURE_WITH_UNIT (LENGTH_MEASURE( 1.000000000000000100E-005 ), #62, 'distance_accuracy_value', 'NONE');
#37 = UNCERTAINTY_MEASURE_WITH_UNIT (LENGTH_MEASURE( 1.000000000000000100E-005 ), #66, 'distance_accuracy_value', 'NONE');
#38 = CARTESIAN_POINT ( 'NONE',  ( 0.0000000000000000000, 0.3750000000000000600, 0.0000000000000000000 ) ) ;
#39 = DIRECTION ( 'NONE',  ( 0.0000000000000000000, 0.0000000000000000000, -1.000000000000000000 ) ) ;
#40 = DIRECTION ( 'NONE',  ( -0.0000000000000000000, -1.000000000000000000, -0.0000000000000000000 ) ) ;
#41 = CARTESIAN_POINT ( 'NONE',  ( 0.0000000000000000000, 0.3750000000000000600, 0.0000000000000000000 ) ) ;
#42 = DIRECTION ( 'NONE',  ( 0.0000000000000000000, 0.0000000000000000000, 1.000000000000000000 ) ) ;
#43 = DIRECTION ( 'NONE',  ( 0.0000000000000000000, 1.000000000000000000, 0.0000000000000000000 ) ) ;
#44 = CARTESIAN_POINT ( 'NONE',  ( 0.0000000000000000000, 0.0000000000000000000, 0.0000000000000000000 ) ) ;
#45 = DIRECTION ( 'NONE',  ( 0.0000000000000000000, 0.0000000000000000000, 1.000000000000000000 ) ) ;
#46 = DIRECTION ( 'NONE',  ( 0.0000000000000000000, 1.000000000000000000, 0.0000000000000000000 ) ) ;
#47 = PRODUCT_DEFINITION_FORMATION_WITH_SPECIFIED_SOURCE ( 'ANY', '', #106, .NOT_KNOWN. ) ;
#48 = CARTESIAN_POINT ( 'NONE',  ( 0.0000000000000000000, 0.3750000000000000600, 0.0000000000000000000 ) ) ;
#49 = DIRECTION ( 'NONE',  ( 0.0000000000000000000, 1.000000000000000000, 0.0000000000000000000 ) ) ;
#50 = DIRECTION ( 'NONE',  ( 0.0000000000000000000, -0.0000000000000000000, 1.000000000000000000 ) ) ;
#51 = PLANE ( 'NONE',  #5 ) ;
#52 = CARTESIAN_POINT ( 'NONE',  ( 0.0000000000000000000, 0.0000000000000000000, 0.0000000000000000000 ) ) ;
#53 = DIRECTION ( 'NONE',  ( 0.0000000000000000000, 1.000000000000000000, 0.0000000000000000000 ) ) ;
#54 = DIRECTION ( 'NONE',  ( 0.0000000000000000000, -0.0000000000000000000, 1.000000000000000000 ) ) ;
#55 = FILL_AREA_STYLE_COLOUR ( '', #127 ) ;
#56 = FILL_AREA_STYLE ('',( #55 ) ) ;
#57 = SURFACE_STYLE_FILL_AREA ( #56 ) ;
#58 = SURFACE_SIDE_STYLE ('',( #57 ) ) ;
#59 = SURFACE_STYLE_USAGE ( .BOTH. , #58 ) ;
#60 = PRESENTATION_STYLE_ASSIGNMENT (( #59 ) ) ;
#61 =( LENGTH_UNIT ( ) NAMED_UNIT ( * ) SI_UNIT ( $, .METRE. ) );
#62 =( CONVERSION_BASED_UNIT ( 'INCH', #1 ) LENGTH_UNIT ( ) NAMED_UNIT ( #104 ) );
#63 =( NAMED_UNIT ( * ) PLANE_ANGLE_UNIT ( ) SI_UNIT ( $, .RADIAN. ) );
#64 =( NAMED_UNIT ( * ) SI_UNIT ( $, .STERADIAN. ) SOLID_ANGLE_UNIT ( ) );
#65 =( LENGTH_UNIT ( ) NAMED_UNIT ( * ) SI_UNIT ( $, .METRE. ) );
#66 =( CONVERSION_BASED_UNIT ( 'INCH', #33 ) LENGTH_UNIT ( ) NAMED_UNIT ( #103 ) );
#67 =( NAMED_UNIT ( * ) PLANE_ANGLE_UNIT ( ) SI_UNIT ( $, .RADIAN. ) );
#68 =( NAMED_UNIT ( * ) SI_UNIT ( $, .STERADIAN. ) SOLID_ANGLE_UNIT ( ) );
#69 = APPLICATION_PROTOCOL_DEFINITION ( 'draft international standard', 'automotive_design', 1998, #148 ) ;
#70 = FILL_AREA_STYLE_COLOUR ( '', #131 ) ;
#71 = FILL_AREA_STYLE ('',( #70 ) ) ;
#72 = SURFACE_STYLE_FILL_AREA ( #71 ) ;
#73 = SURFACE_SIDE_STYLE ('',( #72 ) ) ;
#74 = SURFACE_STYLE_USAGE ( .BOTH. , #73 ) ;
#75 = PRESENTATION_STYLE_ASSIGNMENT (( #74 ) ) ;
#76 =( LENGTH_UNIT ( ) NAMED_UNIT ( * ) SI_UNIT ( $, .METRE. ) );
#77 =( CONVERSION_BASED_UNIT ( 'INCH', #109 ) LENGTH_UNIT ( ) NAMED_UNIT ( #105 ) );
#78 =( NAMED_UNIT ( * ) PLANE_ANGLE_UNIT ( ) SI_UNIT ( $, .RADIAN. ) );
#79 =( NAMED_UNIT ( * ) SI_UNIT ( $, .STERADIAN. ) SOLID_ANGLE_UNIT ( ) );
#80 = CARTESIAN_POINT ( 'NONE',  ( 0.0000000000000000000, 0.0000000000000000000, 0.0000000000000000000 ) ) ;
#81 = DIRECTION ( 'NONE',  ( 0.0000000000000000000, 0.0000000000000000000, 1.000000000000000000 ) ) ;
#82 = DIRECTION ( 'NONE',  ( 1.000000000000000000, 0.0000000000000000000, 0.0000000000000000000 ) ) ;
#83 = SHAPE_DEFINITION_REPRESENTATION ( #123, #34 ) ;
#84 = PRODUCT_CONTEXT ( 'NONE', #148, 'mechanical' ) ;
#85 = APPLICATION_PROTOCOL_DEFINITION ( 'draft international standard', 'automotive_design', 1998, #149 ) ;
#86 = DIRECTION ( 'NONE',  ( -0.0000000000000000000, -1.000000000000000000, -0.0000000000000000000 ) ) ;
#87 = CARTESIAN_POINT ( 'NONE',  ( 0.0000000000000000000, 0.3750000000000000600, -0.1875000000000000300 ) ) ;
#88 = LINE ( 'NONE', #87, #28 ) ;
#89 = CARTESIAN_POINT ( 'NONE',  ( 0.0000000000000000000, 0.3750000000000000600, 0.0000000000000000000 ) ) ;
#90 = DIRECTION ( 'NONE',  ( 0.0000000000000000000, 0.0000000000000000000, 1.000000000000000000 ) ) ;
#91 = DIRECTION ( 'NONE',  ( 0.0000000000000000000, 1.000000000000000000, 0.0000000000000000000 ) ) ;
#92 = CARTESIAN_POINT ( 'NONE',  ( 0.0000000000000000000, 0.0000000000000000000, 0.0000000000000000000 ) ) ;
#93 = DIRECTION ( 'NONE',  ( 0.0000000000000000000, 0.0000000000000000000, 1.000000000000000000 ) ) ;
#94 = DIRECTION ( 'NONE',  ( 0.0000000000000000000, 1.000000000000000000, 0.0000000000000000000 ) ) ;
#95 = CARTESIAN_POINT ( 'NONE',  ( 0.0000000000000000000, 0.3750000000000000600, 0.0000000000000000000 ) ) ;
#96 = DIRECTION ( 'NONE',  ( -0.0000000000000000000, -1.000000000000000000, -0.0000000000000000000 ) ) ;
#97 = CARTESIAN_POINT ( 'NONE',  ( 2.296212748401286800E-017, 0.3750000000000000600, 0.1875000000000000300 ) ) ;
#98 = LINE ( 'NONE', #97, #144 ) ;
#99 = CARTESIAN_POINT ( 'NONE',  ( 2.296212748401286800E-017, 0.3750000000000000600, 0.1875000000000000300 ) ) ;
#100 = CARTESIAN_POINT ( 'NONE',  ( 0.0000000000000000000, 0.0000000000000000000, -0.1875000000000000300 ) ) ;
#101 = CARTESIAN_POINT ( 'NONE',  ( 0.0000000000000000000, 0.3750000000000000600, -0.1875000000000000300 ) ) ;
#102 = CARTESIAN_POINT ( 'NONE',  ( 2.296212748401286800E-017, 0.0000000000000000000, 0.1875000000000000300 ) ) ;
#103 = DIMENSIONAL_EXPONENTS ( 1.000000000000000000, 0.0000000000000000000, 0.0000000000000000000, 0.0000000000000000000, 0.0000000000000000000, 0.0000000000000000000, 0.0000000000000000000 ) ;
#104 = DIMENSIONAL_EXPONENTS ( 1.000000000000000000, 0.0000000000000000000, 0.0000000000000000000, 0.0000000000000000000, 0.0000000000000000000, 0.0000000000000000000, 0.0000000000000000000 ) ;
#105 = DIMENSIONAL_EXPONENTS ( 1.000000000000000000, 0.0000000000000000000, 0.0000000000000000000, 0.0000000000000000000, 0.0000000000000000000, 0.0000000000000000000, 0.0000000000000000000 ) ;
#106 = PRODUCT ( 'R375C', 'R375C', '', ( #84 ) ) ;
#107 = AXIS2_PLACEMENT_3D ( 'NONE', #80, #81, #82 ) ;
#108 = MECHANICAL_DESIGN_GEOMETRIC_PRESENTATION_REPRESENTATION (  '', ( #31 ), #122 ) ;
#109 = LENGTH_MEASURE_WITH_UNIT ( LENGTH_MEASURE( 0.02539999999999999900 ), #76 );
#110 = DIRECTION ( 'NONE',  ( -0.0000000000000000000, -1.000000000000000000, -0.0000000000000000000 ) ) ;
#111 = DIRECTION ( 'NONE',  ( 0.0000000000000000000, 0.0000000000000000000, -1.000000000000000000 ) ) ;
#112 = CYLINDRICAL_SURFACE ( 'NONE', #119, 0.1875000000000000300 ) ;
#113 = FACE_OUTER_BOUND ( 'NONE', #23, .T. ) ;
#114 = FACE_OUTER_BOUND ( 'NONE', #25, .T. ) ;
#115 = AXIS2_PLACEMENT_3D ( 'NONE', #38, #110, #111 ) ;
#116 = CYLINDRICAL_SURFACE ( 'NONE', #115, 0.1875000000000000300 ) ;
#117 = FACE_OUTER_BOUND ( 'NONE', #26, .T. ) ;
#118 = AXIS2_PLACEMENT_3D ( 'NONE', #48, #49, #50 ) ;
#119 = AXIS2_PLACEMENT_3D ( 'NONE', #41, #40, #39 ) ;
#120 =( GEOMETRIC_REPRESENTATION_CONTEXT ( 3 ) GLOBAL_UNCERTAINTY_ASSIGNED_CONTEXT ( ( #36 ) ) GLOBAL_UNIT_ASSIGNED_CONTEXT ( ( #62, #63, #64 ) ) REPRESENTATION_CONTEXT ( 'NONE', 'WORKASPACE' ) );
#121 =( GEOMETRIC_REPRESENTATION_CONTEXT ( 3 ) GLOBAL_UNCERTAINTY_ASSIGNED_CONTEXT ( ( #37 ) ) GLOBAL_UNIT_ASSIGNED_CONTEXT ( ( #66, #67, #68 ) ) REPRESENTATION_CONTEXT ( 'NONE', 'WORKASPACE' ) );
#122 =( GEOMETRIC_REPRESENTATION_CONTEXT ( 3 ) GLOBAL_UNCERTAINTY_ASSIGNED_CONTEXT ( ( #35 ) ) GLOBAL_UNIT_ASSIGNED_CONTEXT ( ( #77, #78, #79 ) ) REPRESENTATION_CONTEXT ( 'NONE', 'WORKASPACE' ) );
#123 = PRODUCT_DEFINITION_SHAPE ( 'NONE', 'NONE',  #126 ) ;
#124 = PRODUCT_DEFINITION_CONTEXT ( 'detailed design', #149, 'design' ) ;
#125 = PRODUCT_RELATED_PRODUCT_CATEGORY ( 'part', '', ( #106 ) ) ;
#126 = PRODUCT_DEFINITION ( 'UNKNOWN', '', #47, #124 ) ;
#127 = COLOUR_RGB ( '',0.5686274509803921400, 0.5686274509803921400, 0.5882352941176470800 ) ;
#128 = CIRCLE ( 'NONE', #30, 0.1875000000000000300 ) ;
#129 = CIRCLE ( 'NONE', #29, 0.1875000000000000300 ) ;
#130 = CIRCLE ( 'NONE', #143, 0.1875000000000000300 ) ;
#131 = COLOUR_RGB ( '',0.5686274509803921400, 0.5686274509803921400, 0.5882352941176470800 ) ;
#132 = CIRCLE ( 'NONE', #27, 0.1875000000000000300 ) ;
#133 = EDGE_CURVE ( 'NONE', #10, #7, #98, .T. ) ;
#134 = EDGE_CURVE ( 'NONE', #10, #8, #132, .T. ) ;
#135 = EDGE_CURVE ( 'NONE', #7, #9, #128, .T. ) ;
#136 = EDGE_CURVE ( 'NONE', #8, #9, #88, .T. ) ;
#137 = EDGE_CURVE ( 'NONE', #8, #10, #129, .T. ) ;
#138 = EDGE_CURVE ( 'NONE', #9, #7, #130, .T. ) ;
#139 = ADVANCED_FACE ( 'NONE', ( #146 ), #112, .T. ) ;
#140 = ADVANCED_FACE ( 'NONE', ( #113 ), #116, .T. ) ;
#141 = ADVANCED_FACE ( 'NONE', ( #114 ), #6, .T. ) ;
#142 = ADVANCED_FACE ( 'NONE', ( #117 ), #51, .F. ) ;
#143 = AXIS2_PLACEMENT_3D ( 'NONE', #44, #43, #42 ) ;
#144 = VECTOR ( 'NONE', #96, 39.37007874015748100 ) ;
#145 = CLOSED_SHELL ( 'NONE', ( #139, #140, #141, #142 ) ) ;
#146 = FACE_OUTER_BOUND ( 'NONE', #24, .T. ) ;
#147 = MANIFOLD_SOLID_BREP ( 'Boss-Extrude1', #145 ) ;
#148 = APPLICATION_CONTEXT ( 'automotive_design' ) ;
#149 = APPLICATION_CONTEXT ( 'automotive_design' ) ;
ENDSEC;
END-ISO-10303-21;
