ISO-10303-21;
HEADER;
FILE_DESCRIPTION (( 'STEP AP214' ),
    '1' );
FILE_NAME ('R500A.step',
    '2012-04-20T21:05:49',
    ( '' ),
    ( '' ),
    'SwSTEP 2.0',
    'SolidWorks 2012',
    '' );
FILE_SCHEMA (( 'AUTOMOTIVE_DESIGN' ));
ENDSEC;

DATA;
#1 = CYLINDRICAL_SURFACE ( 'NONE', #4, 0.06250000000000000000 ) ;
#2 = VECTOR ( 'NONE', #79, 39.37007874015748100 ) ;
#3 = FACE_OUTER_BOUND ( 'NONE', #10, .T. ) ;
#4 = AXIS2_PLACEMENT_3D ( 'NONE', #76, #80, #81 ) ;
#5 = VECTOR ( 'NONE', #70, 39.37007874015748100 ) ;
#6 = CARTESIAN_POINT ( 'NONE',  ( 7.654042494670957500E-018, 0.0000000000000000000, 0.06250000000000000000 ) ) ;
#7 = ORIENTED_EDGE ( 'NONE', *, *, #136, .F. ) ;
#8 = EDGE_LOOP ( 'NONE', ( #12, #13, #52, #53 ) ) ;
#9 = EDGE_LOOP ( 'NONE', ( #54, #19, #18, #17 ) ) ;
#10 = EDGE_LOOP ( 'NONE', ( #14, #15 ) ) ;
#11 = EDGE_LOOP ( 'NONE', ( #16, #7 ) ) ;
#12 = ORIENTED_EDGE ( 'NONE', *, *, #135, .F. ) ;
#13 = ORIENTED_EDGE ( 'NONE', *, *, #140, .T. ) ;
#14 = ORIENTED_EDGE ( 'NONE', *, *, #138, .T. ) ;
#15 = ORIENTED_EDGE ( 'NONE', *, *, #135, .T. ) ;
#16 = ORIENTED_EDGE ( 'NONE', *, *, #139, .F. ) ;
#17 = ORIENTED_EDGE ( 'NONE', *, *, #139, .T. ) ;
#18 = ORIENTED_EDGE ( 'NONE', *, *, #137, .T. ) ;
#19 = ORIENTED_EDGE ( 'NONE', *, *, #138, .F. ) ;
#20 = LENGTH_MEASURE_WITH_UNIT ( LENGTH_MEASURE( 0.02539999999999999900 ), #41 );
#21 = STYLED_ITEM ( 'NONE', ( #43 ), #25 ) ;
#22 = PRESENTATION_LAYER_ASSIGNMENT (  '', '', ( #21 ) ) ;
#23 = MECHANICAL_DESIGN_GEOMETRIC_PRESENTATION_REPRESENTATION (  '', ( #21 ), #125 ) ;
#24 = PRODUCT_DEFINITION_CONTEXT ( 'detailed design', #148, 'design' ) ;
#25 = MANIFOLD_SOLID_BREP ( 'Boss-Extrude1', #145 ) ;
#26 = PRODUCT_DEFINITION_SHAPE ( 'NONE', 'NONE',  #128 ) ;
#27 = PRESENTATION_LAYER_ASSIGNMENT (  '', '', ( #28 ) ) ;
#28 = STYLED_ITEM ( 'NONE', ( #100 ), #29 ) ;
#29 = ADVANCED_BREP_SHAPE_REPRESENTATION ( 'R500A', ( #25, #36 ), #123 ) ;
#30 = UNCERTAINTY_MEASURE_WITH_UNIT (LENGTH_MEASURE( 1.000000000000000100E-005 ), #33, 'distance_accuracy_value', 'NONE');
#31 = UNCERTAINTY_MEASURE_WITH_UNIT (LENGTH_MEASURE( 1.000000000000000100E-005 ), #102, 'distance_accuracy_value', 'NONE');
#32 = UNCERTAINTY_MEASURE_WITH_UNIT (LENGTH_MEASURE( 1.000000000000000100E-005 ), #91, 'distance_accuracy_value', 'NONE');
#33 =( CONVERSION_BASED_UNIT ( 'INCH', #20 ) LENGTH_UNIT ( ) NAMED_UNIT ( #37 ) );
#34 =( NAMED_UNIT ( * ) SI_UNIT ( $, .STERADIAN. ) SOLID_ANGLE_UNIT ( ) );
#35 =( NAMED_UNIT ( * ) PLANE_ANGLE_UNIT ( ) SI_UNIT ( $, .RADIAN. ) );
#36 = AXIS2_PLACEMENT_3D ( 'NONE', #105, #106, #107 ) ;
#37 = DIMENSIONAL_EXPONENTS ( 1.000000000000000000, 0.0000000000000000000, 0.0000000000000000000, 0.0000000000000000000, 0.0000000000000000000, 0.0000000000000000000, 0.0000000000000000000 ) ;
#38 = DIMENSIONAL_EXPONENTS ( 1.000000000000000000, 0.0000000000000000000, 0.0000000000000000000, 0.0000000000000000000, 0.0000000000000000000, 0.0000000000000000000, 0.0000000000000000000 ) ;
#39 = DIMENSIONAL_EXPONENTS ( 1.000000000000000000, 0.0000000000000000000, 0.0000000000000000000, 0.0000000000000000000, 0.0000000000000000000, 0.0000000000000000000, 0.0000000000000000000 ) ;
#40 = PRODUCT ( 'R500A', 'R500A', '', ( #109 ) ) ;
#41 =( LENGTH_UNIT ( ) NAMED_UNIT ( * ) SI_UNIT ( $, .METRE. ) );
#42 = SURFACE_STYLE_USAGE ( .BOTH. , #44 ) ;
#43 = PRESENTATION_STYLE_ASSIGNMENT (( #42 ) ) ;
#44 = SURFACE_SIDE_STYLE ('',( #45 ) ) ;
#45 = SURFACE_STYLE_FILL_AREA ( #46 ) ;
#46 = FILL_AREA_STYLE ('',( #47 ) ) ;
#47 = FILL_AREA_STYLE_COLOUR ( '', #130 ) ;
#48 = VERTEX_POINT ( 'NONE', #6 ) ;
#49 = VERTEX_POINT ( 'NONE', #55 ) ;
#50 = VERTEX_POINT ( 'NONE', #56 ) ;
#51 = VERTEX_POINT ( 'NONE', #57 ) ;
#52 = ORIENTED_EDGE ( 'NONE', *, *, #136, .T. ) ;
#53 = ORIENTED_EDGE ( 'NONE', *, *, #137, .F. ) ;
#54 = ORIENTED_EDGE ( 'NONE', *, *, #140, .F. ) ;
#55 = CARTESIAN_POINT ( 'NONE',  ( 7.654042494670957500E-018, 0.5000000000000000000, 0.06250000000000000000 ) ) ;
#56 = CARTESIAN_POINT ( 'NONE',  ( 0.0000000000000000000, 0.0000000000000000000, -0.06250000000000000000 ) ) ;
#57 = CARTESIAN_POINT ( 'NONE',  ( 0.0000000000000000000, 0.5000000000000000000, -0.06250000000000000000 ) ) ;
#58 = CARTESIAN_POINT ( 'NONE',  ( 0.0000000000000000000, 0.5000000000000000000, 0.0000000000000000000 ) ) ;
#59 = DIRECTION ( 'NONE',  ( -0.0000000000000000000, -1.000000000000000000, -0.0000000000000000000 ) ) ;
#60 = DIRECTION ( 'NONE',  ( 0.0000000000000000000, 0.0000000000000000000, -1.000000000000000000 ) ) ;
#61 = CARTESIAN_POINT ( 'NONE',  ( 0.0000000000000000000, 0.5000000000000000000, 0.0000000000000000000 ) ) ;
#62 = DIRECTION ( 'NONE',  ( 0.0000000000000000000, 1.000000000000000000, 0.0000000000000000000 ) ) ;
#63 = DIRECTION ( 'NONE',  ( 0.0000000000000000000, 0.0000000000000000000, 1.000000000000000000 ) ) ;
#64 = CARTESIAN_POINT ( 'NONE',  ( 0.0000000000000000000, 0.0000000000000000000, 0.0000000000000000000 ) ) ;
#65 = DIRECTION ( 'NONE',  ( 0.0000000000000000000, 1.000000000000000000, 0.0000000000000000000 ) ) ;
#66 = DIRECTION ( 'NONE',  ( 0.0000000000000000000, 0.0000000000000000000, 1.000000000000000000 ) ) ;
#67 = CARTESIAN_POINT ( 'NONE',  ( 0.0000000000000000000, 0.5000000000000000000, 0.0000000000000000000 ) ) ;
#68 = LINE ( 'NONE', #69, #5 ) ;
#69 = CARTESIAN_POINT ( 'NONE',  ( 0.0000000000000000000, 0.5000000000000000000, -0.06250000000000000000 ) ) ;
#70 = DIRECTION ( 'NONE',  ( -0.0000000000000000000, -1.000000000000000000, -0.0000000000000000000 ) ) ;
#71 = DIRECTION ( 'NONE',  ( 0.0000000000000000000, 1.000000000000000000, 0.0000000000000000000 ) ) ;
#72 = DIRECTION ( 'NONE',  ( 0.0000000000000000000, 0.0000000000000000000, 1.000000000000000000 ) ) ;
#73 = CARTESIAN_POINT ( 'NONE',  ( 0.0000000000000000000, 0.0000000000000000000, 0.0000000000000000000 ) ) ;
#74 = DIRECTION ( 'NONE',  ( 0.0000000000000000000, 1.000000000000000000, 0.0000000000000000000 ) ) ;
#75 = DIRECTION ( 'NONE',  ( 0.0000000000000000000, 0.0000000000000000000, 1.000000000000000000 ) ) ;
#76 = CARTESIAN_POINT ( 'NONE',  ( 0.0000000000000000000, 0.5000000000000000000, 0.0000000000000000000 ) ) ;
#77 = LINE ( 'NONE', #78, #2 ) ;
#78 = CARTESIAN_POINT ( 'NONE',  ( 7.654042494670957500E-018, 0.5000000000000000000, 0.06250000000000000000 ) ) ;
#79 = DIRECTION ( 'NONE',  ( -0.0000000000000000000, -1.000000000000000000, -0.0000000000000000000 ) ) ;
#80 = DIRECTION ( 'NONE',  ( -0.0000000000000000000, -1.000000000000000000, -0.0000000000000000000 ) ) ;
#81 = DIRECTION ( 'NONE',  ( 0.0000000000000000000, 0.0000000000000000000, -1.000000000000000000 ) ) ;
#82 = PLANE ( 'NONE',  #114 ) ;
#83 = CARTESIAN_POINT ( 'NONE',  ( 0.0000000000000000000, 0.5000000000000000000, 0.0000000000000000000 ) ) ;
#84 = DIRECTION ( 'NONE',  ( 0.0000000000000000000, 1.000000000000000000, 0.0000000000000000000 ) ) ;
#85 = DIRECTION ( 'NONE',  ( 0.0000000000000000000, -0.0000000000000000000, 1.000000000000000000 ) ) ;
#86 = PLANE ( 'NONE',  #111 ) ;
#87 = CARTESIAN_POINT ( 'NONE',  ( 0.0000000000000000000, 0.0000000000000000000, 0.0000000000000000000 ) ) ;
#88 = DIRECTION ( 'NONE',  ( 0.0000000000000000000, 1.000000000000000000, 0.0000000000000000000 ) ) ;
#89 = DIRECTION ( 'NONE',  ( 0.0000000000000000000, -0.0000000000000000000, 1.000000000000000000 ) ) ;
#90 =( LENGTH_UNIT ( ) NAMED_UNIT ( * ) SI_UNIT ( $, .METRE. ) );
#91 =( CONVERSION_BASED_UNIT ( 'INCH', #113 ) LENGTH_UNIT ( ) NAMED_UNIT ( #38 ) );
#92 =( NAMED_UNIT ( * ) PLANE_ANGLE_UNIT ( ) SI_UNIT ( $, .RADIAN. ) );
#93 =( NAMED_UNIT ( * ) SI_UNIT ( $, .STERADIAN. ) SOLID_ANGLE_UNIT ( ) );
#94 = APPLICATION_PROTOCOL_DEFINITION ( 'draft international standard', 'automotive_design', 1998, #147 ) ;
#95 = FILL_AREA_STYLE_COLOUR ( '', #129 ) ;
#96 = FILL_AREA_STYLE ('',( #95 ) ) ;
#97 = SURFACE_STYLE_FILL_AREA ( #96 ) ;
#98 = SURFACE_SIDE_STYLE ('',( #97 ) ) ;
#99 = SURFACE_STYLE_USAGE ( .BOTH. , #98 ) ;
#100 = PRESENTATION_STYLE_ASSIGNMENT (( #99 ) ) ;
#101 =( LENGTH_UNIT ( ) NAMED_UNIT ( * ) SI_UNIT ( $, .METRE. ) );
#102 =( CONVERSION_BASED_UNIT ( 'INCH', #144 ) LENGTH_UNIT ( ) NAMED_UNIT ( #39 ) );
#103 =( NAMED_UNIT ( * ) PLANE_ANGLE_UNIT ( ) SI_UNIT ( $, .RADIAN. ) );
#104 =( NAMED_UNIT ( * ) SI_UNIT ( $, .STERADIAN. ) SOLID_ANGLE_UNIT ( ) );
#105 = CARTESIAN_POINT ( 'NONE',  ( 0.0000000000000000000, 0.0000000000000000000, 0.0000000000000000000 ) ) ;
#106 = DIRECTION ( 'NONE',  ( 0.0000000000000000000, 0.0000000000000000000, 1.000000000000000000 ) ) ;
#107 = DIRECTION ( 'NONE',  ( 1.000000000000000000, 0.0000000000000000000, 0.0000000000000000000 ) ) ;
#108 = SHAPE_DEFINITION_REPRESENTATION ( #26, #29 ) ;
#109 = PRODUCT_CONTEXT ( 'NONE', #147, 'mechanical' ) ;
#110 = APPLICATION_PROTOCOL_DEFINITION ( 'draft international standard', 'automotive_design', 1998, #148 ) ;
#111 = AXIS2_PLACEMENT_3D ( 'NONE', #87, #88, #89 ) ;
#112 = FACE_OUTER_BOUND ( 'NONE', #11, .T. ) ;
#113 = LENGTH_MEASURE_WITH_UNIT ( LENGTH_MEASURE( 0.02539999999999999900 ), #90 );
#114 = AXIS2_PLACEMENT_3D ( 'NONE', #83, #84, #85 ) ;
#115 = FACE_OUTER_BOUND ( 'NONE', #9, .T. ) ;
#116 = AXIS2_PLACEMENT_3D ( 'NONE', #73, #74, #75 ) ;
#117 = AXIS2_PLACEMENT_3D ( 'NONE', #64, #65, #66 ) ;
#118 = CYLINDRICAL_SURFACE ( 'NONE', #122, 0.06250000000000000000 ) ;
#119 = FACE_OUTER_BOUND ( 'NONE', #8, .T. ) ;
#120 = AXIS2_PLACEMENT_3D ( 'NONE', #67, #71, #72 ) ;
#121 = AXIS2_PLACEMENT_3D ( 'NONE', #61, #62, #63 ) ;
#122 = AXIS2_PLACEMENT_3D ( 'NONE', #58, #59, #60 ) ;
#123 =( GEOMETRIC_REPRESENTATION_CONTEXT ( 3 ) GLOBAL_UNCERTAINTY_ASSIGNED_CONTEXT ( ( #32 ) ) GLOBAL_UNIT_ASSIGNED_CONTEXT ( ( #91, #92, #93 ) ) REPRESENTATION_CONTEXT ( 'NONE', 'WORKASPACE' ) );
#124 =( GEOMETRIC_REPRESENTATION_CONTEXT ( 3 ) GLOBAL_UNCERTAINTY_ASSIGNED_CONTEXT ( ( #31 ) ) GLOBAL_UNIT_ASSIGNED_CONTEXT ( ( #102, #103, #104 ) ) REPRESENTATION_CONTEXT ( 'NONE', 'WORKASPACE' ) );
#125 =( GEOMETRIC_REPRESENTATION_CONTEXT ( 3 ) GLOBAL_UNCERTAINTY_ASSIGNED_CONTEXT ( ( #30 ) ) GLOBAL_UNIT_ASSIGNED_CONTEXT ( ( #33, #35, #34 ) ) REPRESENTATION_CONTEXT ( 'NONE', 'WORKASPACE' ) );
#126 = ADVANCED_FACE ( 'NONE', ( #119 ), #118, .T. ) ;
#127 = PRODUCT_RELATED_PRODUCT_CATEGORY ( 'part', '', ( #40 ) ) ;
#128 = PRODUCT_DEFINITION ( 'UNKNOWN', '', #149, #24 ) ;
#129 = COLOUR_RGB ( '',0.5686274509803921400, 0.5686274509803921400, 0.5882352941176470800 ) ;
#130 = COLOUR_RGB ( '',0.5686274509803921400, 0.5686274509803921400, 0.5882352941176470800 ) ;
#131 = CIRCLE ( 'NONE', #117, 0.06250000000000000000 ) ;
#132 = CIRCLE ( 'NONE', #120, 0.06250000000000000000 ) ;
#133 = CIRCLE ( 'NONE', #121, 0.06250000000000000000 ) ;
#134 = CIRCLE ( 'NONE', #116, 0.06250000000000000000 ) ;
#135 = EDGE_CURVE ( 'NONE', #49, #51, #133, .T. ) ;
#136 = EDGE_CURVE ( 'NONE', #48, #50, #131, .T. ) ;
#137 = EDGE_CURVE ( 'NONE', #51, #50, #68, .T. ) ;
#138 = EDGE_CURVE ( 'NONE', #51, #49, #132, .T. ) ;
#139 = EDGE_CURVE ( 'NONE', #50, #48, #134, .T. ) ;
#140 = EDGE_CURVE ( 'NONE', #49, #48, #77, .T. ) ;
#141 = ADVANCED_FACE ( 'NONE', ( #115 ), #1, .T. ) ;
#142 = ADVANCED_FACE ( 'NONE', ( #3 ), #82, .T. ) ;
#143 = ADVANCED_FACE ( 'NONE', ( #112 ), #86, .F. ) ;
#144 = LENGTH_MEASURE_WITH_UNIT ( LENGTH_MEASURE( 0.02539999999999999900 ), #101 );
#145 = CLOSED_SHELL ( 'NONE', ( #126, #141, #142, #143 ) ) ;
#146 = MECHANICAL_DESIGN_GEOMETRIC_PRESENTATION_REPRESENTATION (  '', ( #28 ), #124 ) ;
#147 = APPLICATION_CONTEXT ( 'automotive_design' ) ;
#148 = APPLICATION_CONTEXT ( 'automotive_design' ) ;
#149 = PRODUCT_DEFINITION_FORMATION_WITH_SPECIFIED_SOURCE ( 'ANY', '', #40, .NOT_KNOWN. ) ;
ENDSEC;
END-ISO-10303-21;
