ISO-10303-21;
HEADER;
FILE_DESCRIPTION (( 'STEP AP214' ),
    '1' );
FILE_NAME ('R500B.step',
    '2012-04-20T21:06:00',
    ( '' ),
    ( '' ),
    'SwSTEP 2.0',
    'SolidWorks 2012',
    '' );
FILE_SCHEMA (( 'AUTOMOTIVE_DESIGN' ));
ENDSEC;

DATA;
#1 =( GEOMETRIC_REPRESENTATION_CONTEXT ( 3 ) GLOBAL_UNCERTAINTY_ASSIGNED_CONTEXT ( ( #111 ) ) GLOBAL_UNIT_ASSIGNED_CONTEXT ( ( #66, #67, #68 ) ) REPRESENTATION_CONTEXT ( 'NONE', 'WORKASPACE' ) );
#2 = ORIENTED_EDGE ( 'NONE', *, *, #141, .F. ) ;
#3 = ORIENTED_EDGE ( 'NONE', *, *, #142, .T. ) ;
#4 = ORIENTED_EDGE ( 'NONE', *, *, #143, .T. ) ;
#5 = ORIENTED_EDGE ( 'NONE', *, *, #140, .F. ) ;
#6 = ORIENTED_EDGE ( 'NONE', *, *, #144, .F. ) ;
#7 = ORIENTED_EDGE ( 'NONE', *, *, #142, .F. ) ;
#8 = ORIENTED_EDGE ( 'NONE', *, *, #141, .T. ) ;
#9 = EDGE_LOOP ( 'NONE', ( #101, #104 ) ) ;
#10 = EDGE_LOOP ( 'NONE', ( #7, #2 ) ) ;
#11 = EDGE_LOOP ( 'NONE', ( #5, #100, #4, #3 ) ) ;
#12 = EDGE_LOOP ( 'NONE', ( #6, #103, #8, #102 ) ) ;
#13 = PRESENTATION_LAYER_ASSIGNMENT (  '', '', ( #18 ) ) ;
#14 = AXIS2_PLACEMENT_3D ( 'NONE', #35, #36, #37 ) ;
#15 = LENGTH_MEASURE_WITH_UNIT ( LENGTH_MEASURE( 0.02539999999999999900 ), #76 );
#16 = AXIS2_PLACEMENT_3D ( 'NONE', #38, #42, #43 ) ;
#17 = CLOSED_SHELL ( 'NONE', ( #145, #146, #133, #147 ) ) ;
#18 = STYLED_ITEM ( 'NONE', ( #77 ), #130 ) ;
#19 = FACE_OUTER_BOUND ( 'NONE', #9, .T. ) ;
#20 = MECHANICAL_DESIGN_GEOMETRIC_PRESENTATION_REPRESENTATION (  '', ( #18 ), #107 ) ;
#21 =( NAMED_UNIT ( * ) SI_UNIT ( $, .STERADIAN. ) SOLID_ANGLE_UNIT ( ) );
#22 = PLANE ( 'NONE',  #117 ) ;
#23 = CARTESIAN_POINT ( 'NONE',  ( 0.0000000000000000000, 0.5000000000000000000, 0.0000000000000000000 ) ) ;
#24 = DIRECTION ( 'NONE',  ( 0.0000000000000000000, 1.000000000000000000, 0.0000000000000000000 ) ) ;
#25 = DIRECTION ( 'NONE',  ( 0.0000000000000000000, -0.0000000000000000000, 1.000000000000000000 ) ) ;
#26 = CARTESIAN_POINT ( 'NONE',  ( 0.0000000000000000000, 0.5000000000000000000, 0.0000000000000000000 ) ) ;
#27 = DIRECTION ( 'NONE',  ( 0.0000000000000000000, 1.000000000000000000, 0.0000000000000000000 ) ) ;
#28 = DIRECTION ( 'NONE',  ( 0.0000000000000000000, 0.0000000000000000000, 1.000000000000000000 ) ) ;
#29 = CARTESIAN_POINT ( 'NONE',  ( 0.0000000000000000000, 0.0000000000000000000, 0.0000000000000000000 ) ) ;
#30 = LINE ( 'NONE', #31, #123 ) ;
#31 = CARTESIAN_POINT ( 'NONE',  ( 1.530808498934191500E-017, 0.5000000000000000000, 0.1250000000000000000 ) ) ;
#32 = DIRECTION ( 'NONE',  ( -0.0000000000000000000, -1.000000000000000000, -0.0000000000000000000 ) ) ;
#33 = DIRECTION ( 'NONE',  ( 0.0000000000000000000, 1.000000000000000000, 0.0000000000000000000 ) ) ;
#34 = DIRECTION ( 'NONE',  ( 0.0000000000000000000, 0.0000000000000000000, 1.000000000000000000 ) ) ;
#35 = CARTESIAN_POINT ( 'NONE',  ( 0.0000000000000000000, 0.0000000000000000000, 0.0000000000000000000 ) ) ;
#36 = DIRECTION ( 'NONE',  ( 0.0000000000000000000, 1.000000000000000000, 0.0000000000000000000 ) ) ;
#37 = DIRECTION ( 'NONE',  ( 0.0000000000000000000, 0.0000000000000000000, 1.000000000000000000 ) ) ;
#38 = CARTESIAN_POINT ( 'NONE',  ( 0.0000000000000000000, 0.5000000000000000000, 0.0000000000000000000 ) ) ;
#39 = LINE ( 'NONE', #40, #120 ) ;
#40 = CARTESIAN_POINT ( 'NONE',  ( 0.0000000000000000000, 0.5000000000000000000, -0.1250000000000000000 ) ) ;
#41 = DIRECTION ( 'NONE',  ( -0.0000000000000000000, -1.000000000000000000, -0.0000000000000000000 ) ) ;
#42 = DIRECTION ( 'NONE',  ( 0.0000000000000000000, 1.000000000000000000, 0.0000000000000000000 ) ) ;
#43 = DIRECTION ( 'NONE',  ( 0.0000000000000000000, 0.0000000000000000000, 1.000000000000000000 ) ) ;
#44 = CARTESIAN_POINT ( 'NONE',  ( 0.0000000000000000000, 0.5000000000000000000, 0.0000000000000000000 ) ) ;
#45 = DIRECTION ( 'NONE',  ( -0.0000000000000000000, -1.000000000000000000, -0.0000000000000000000 ) ) ;
#46 = DIRECTION ( 'NONE',  ( 0.0000000000000000000, 0.0000000000000000000, -1.000000000000000000 ) ) ;
#47 = CARTESIAN_POINT ( 'NONE',  ( 0.0000000000000000000, 0.5000000000000000000, 0.0000000000000000000 ) ) ;
#48 = DIRECTION ( 'NONE',  ( -0.0000000000000000000, -1.000000000000000000, -0.0000000000000000000 ) ) ;
#49 = DIRECTION ( 'NONE',  ( 0.0000000000000000000, 0.0000000000000000000, -1.000000000000000000 ) ) ;
#50 = PLANE ( 'NONE',  #113 ) ;
#51 = CARTESIAN_POINT ( 'NONE',  ( 0.0000000000000000000, 0.0000000000000000000, 0.0000000000000000000 ) ) ;
#52 = DIRECTION ( 'NONE',  ( 0.0000000000000000000, 1.000000000000000000, 0.0000000000000000000 ) ) ;
#53 = DIRECTION ( 'NONE',  ( 0.0000000000000000000, -0.0000000000000000000, 1.000000000000000000 ) ) ;
#54 =( LENGTH_UNIT ( ) NAMED_UNIT ( * ) SI_UNIT ( $, .METRE. ) );
#55 =( CONVERSION_BASED_UNIT ( 'INCH', #125 ) LENGTH_UNIT ( ) NAMED_UNIT ( #83 ) );
#56 =( NAMED_UNIT ( * ) PLANE_ANGLE_UNIT ( ) SI_UNIT ( $, .RADIAN. ) );
#57 =( NAMED_UNIT ( * ) SI_UNIT ( $, .STERADIAN. ) SOLID_ANGLE_UNIT ( ) );
#58 = APPLICATION_PROTOCOL_DEFINITION ( 'draft international standard', 'automotive_design', 1998, #116 ) ;
#59 = FILL_AREA_STYLE_COLOUR ( '', #134 ) ;
#60 = FILL_AREA_STYLE ('',( #59 ) ) ;
#61 = SURFACE_STYLE_FILL_AREA ( #60 ) ;
#62 = SURFACE_SIDE_STYLE ('',( #61 ) ) ;
#63 = SURFACE_STYLE_USAGE ( .BOTH. , #62 ) ;
#64 = PRESENTATION_STYLE_ASSIGNMENT (( #63 ) ) ;
#65 =( LENGTH_UNIT ( ) NAMED_UNIT ( * ) SI_UNIT ( $, .METRE. ) );
#66 =( CONVERSION_BASED_UNIT ( 'INCH', #105 ) LENGTH_UNIT ( ) NAMED_UNIT ( #84 ) );
#67 =( NAMED_UNIT ( * ) PLANE_ANGLE_UNIT ( ) SI_UNIT ( $, .RADIAN. ) );
#68 =( NAMED_UNIT ( * ) SI_UNIT ( $, .STERADIAN. ) SOLID_ANGLE_UNIT ( ) );
#69 = CARTESIAN_POINT ( 'NONE',  ( 0.0000000000000000000, 0.0000000000000000000, 0.0000000000000000000 ) ) ;
#70 = DIRECTION ( 'NONE',  ( 0.0000000000000000000, 0.0000000000000000000, 1.000000000000000000 ) ) ;
#71 = DIRECTION ( 'NONE',  ( 1.000000000000000000, 0.0000000000000000000, 0.0000000000000000000 ) ) ;
#72 = SHAPE_DEFINITION_REPRESENTATION ( #87, #110 ) ;
#73 = PRODUCT_CONTEXT ( 'NONE', #116, 'mechanical' ) ;
#74 = APPLICATION_PROTOCOL_DEFINITION ( 'draft international standard', 'automotive_design', 1998, #115 ) ;
#75 =( CONVERSION_BASED_UNIT ( 'INCH', #15 ) LENGTH_UNIT ( ) NAMED_UNIT ( #82 ) );
#76 =( LENGTH_UNIT ( ) NAMED_UNIT ( * ) SI_UNIT ( $, .METRE. ) );
#77 = PRESENTATION_STYLE_ASSIGNMENT (( #78 ) ) ;
#78 = SURFACE_STYLE_USAGE ( .BOTH. , #88 ) ;
#79 = AXIS2_PLACEMENT_3D ( 'NONE', #69, #70, #71 ) ;
#80 = PRODUCT_DEFINITION_FORMATION_WITH_SPECIFIED_SOURCE ( 'ANY', '', #85, .NOT_KNOWN. ) ;
#81 = MECHANICAL_DESIGN_GEOMETRIC_PRESENTATION_REPRESENTATION (  '', ( #112 ), #1 ) ;
#82 = DIMENSIONAL_EXPONENTS ( 1.000000000000000000, 0.0000000000000000000, 0.0000000000000000000, 0.0000000000000000000, 0.0000000000000000000, 0.0000000000000000000, 0.0000000000000000000 ) ;
#83 = DIMENSIONAL_EXPONENTS ( 1.000000000000000000, 0.0000000000000000000, 0.0000000000000000000, 0.0000000000000000000, 0.0000000000000000000, 0.0000000000000000000, 0.0000000000000000000 ) ;
#84 = DIMENSIONAL_EXPONENTS ( 1.000000000000000000, 0.0000000000000000000, 0.0000000000000000000, 0.0000000000000000000, 0.0000000000000000000, 0.0000000000000000000, 0.0000000000000000000 ) ;
#85 = PRODUCT ( 'R500B', 'R500B', '', ( #73 ) ) ;
#86 = PRODUCT_DEFINITION_CONTEXT ( 'detailed design', #115, 'design' ) ;
#87 = PRODUCT_DEFINITION_SHAPE ( 'NONE', 'NONE',  #132 ) ;
#88 = SURFACE_SIDE_STYLE ('',( #89 ) ) ;
#89 = SURFACE_STYLE_FILL_AREA ( #90 ) ;
#90 = FILL_AREA_STYLE ('',( #91 ) ) ;
#91 = FILL_AREA_STYLE_COLOUR ( '', #135 ) ;
#92 = CARTESIAN_POINT ( 'NONE',  ( 1.530808498934191500E-017, 0.5000000000000000000, 0.1250000000000000000 ) ) ;
#93 = CARTESIAN_POINT ( 'NONE',  ( 0.0000000000000000000, 0.0000000000000000000, -0.1250000000000000000 ) ) ;
#94 = CARTESIAN_POINT ( 'NONE',  ( 0.0000000000000000000, 0.5000000000000000000, -0.1250000000000000000 ) ) ;
#95 = CARTESIAN_POINT ( 'NONE',  ( 1.530808498934191500E-017, 0.0000000000000000000, 0.1250000000000000000 ) ) ;
#96 = VERTEX_POINT ( 'NONE', #95 ) ;
#97 = VERTEX_POINT ( 'NONE', #94 ) ;
#98 = VERTEX_POINT ( 'NONE', #93 ) ;
#99 = VERTEX_POINT ( 'NONE', #92 ) ;
#100 = ORIENTED_EDGE ( 'NONE', *, *, #139, .F. ) ;
#101 = ORIENTED_EDGE ( 'NONE', *, *, #139, .T. ) ;
#102 = ORIENTED_EDGE ( 'NONE', *, *, #143, .F. ) ;
#103 = ORIENTED_EDGE ( 'NONE', *, *, #140, .T. ) ;
#104 = ORIENTED_EDGE ( 'NONE', *, *, #144, .T. ) ;
#105 = LENGTH_MEASURE_WITH_UNIT ( LENGTH_MEASURE( 0.02539999999999999900 ), #65 );
#106 =( GEOMETRIC_REPRESENTATION_CONTEXT ( 3 ) GLOBAL_UNCERTAINTY_ASSIGNED_CONTEXT ( ( #109 ) ) GLOBAL_UNIT_ASSIGNED_CONTEXT ( ( #55, #56, #57 ) ) REPRESENTATION_CONTEXT ( 'NONE', 'WORKASPACE' ) );
#107 =( GEOMETRIC_REPRESENTATION_CONTEXT ( 3 ) GLOBAL_UNCERTAINTY_ASSIGNED_CONTEXT ( ( #108 ) ) GLOBAL_UNIT_ASSIGNED_CONTEXT ( ( #75, #114, #21 ) ) REPRESENTATION_CONTEXT ( 'NONE', 'WORKASPACE' ) );
#108 = UNCERTAINTY_MEASURE_WITH_UNIT (LENGTH_MEASURE( 1.000000000000000100E-005 ), #75, 'distance_accuracy_value', 'NONE');
#109 = UNCERTAINTY_MEASURE_WITH_UNIT (LENGTH_MEASURE( 1.000000000000000100E-005 ), #55, 'distance_accuracy_value', 'NONE');
#110 = ADVANCED_BREP_SHAPE_REPRESENTATION ( 'R500B', ( #130, #79 ), #106 ) ;
#111 = UNCERTAINTY_MEASURE_WITH_UNIT (LENGTH_MEASURE( 1.000000000000000100E-005 ), #66, 'distance_accuracy_value', 'NONE');
#112 = STYLED_ITEM ( 'NONE', ( #64 ), #110 ) ;
#113 = AXIS2_PLACEMENT_3D ( 'NONE', #51, #52, #53 ) ;
#114 =( NAMED_UNIT ( * ) PLANE_ANGLE_UNIT ( ) SI_UNIT ( $, .RADIAN. ) );
#115 = APPLICATION_CONTEXT ( 'automotive_design' ) ;
#116 = APPLICATION_CONTEXT ( 'automotive_design' ) ;
#117 = AXIS2_PLACEMENT_3D ( 'NONE', #23, #24, #25 ) ;
#118 = FACE_OUTER_BOUND ( 'NONE', #12, .T. ) ;
#119 = AXIS2_PLACEMENT_3D ( 'NONE', #47, #48, #49 ) ;
#120 = VECTOR ( 'NONE', #41, 39.37007874015748100 ) ;
#121 = FACE_OUTER_BOUND ( 'NONE', #11, .T. ) ;
#122 = AXIS2_PLACEMENT_3D ( 'NONE', #29, #33, #34 ) ;
#123 = VECTOR ( 'NONE', #32, 39.37007874015748100 ) ;
#124 = AXIS2_PLACEMENT_3D ( 'NONE', #26, #27, #28 ) ;
#125 = LENGTH_MEASURE_WITH_UNIT ( LENGTH_MEASURE( 0.02539999999999999900 ), #54 );
#126 = CYLINDRICAL_SURFACE ( 'NONE', #127, 0.1250000000000000000 ) ;
#127 = AXIS2_PLACEMENT_3D ( 'NONE', #44, #45, #46 ) ;
#128 = FACE_OUTER_BOUND ( 'NONE', #10, .T. ) ;
#129 = CYLINDRICAL_SURFACE ( 'NONE', #119, 0.1250000000000000000 ) ;
#130 = MANIFOLD_SOLID_BREP ( 'Boss-Extrude1', #17 ) ;
#131 = PRODUCT_RELATED_PRODUCT_CATEGORY ( 'part', '', ( #85 ) ) ;
#132 = PRODUCT_DEFINITION ( 'UNKNOWN', '', #80, #86 ) ;
#133 = ADVANCED_FACE ( 'NONE', ( #19 ), #22, .T. ) ;
#134 = COLOUR_RGB ( '',0.5686274509803921400, 0.5686274509803921400, 0.5882352941176470800 ) ;
#135 = COLOUR_RGB ( '',0.5686274509803921400, 0.5686274509803921400, 0.5882352941176470800 ) ;
#136 = CIRCLE ( 'NONE', #124, 0.1250000000000000000 ) ;
#137 = CIRCLE ( 'NONE', #122, 0.1250000000000000000 ) ;
#138 = CIRCLE ( 'NONE', #16, 0.1250000000000000000 ) ;
#139 = EDGE_CURVE ( 'NONE', #97, #99, #136, .T. ) ;
#140 = EDGE_CURVE ( 'NONE', #99, #96, #30, .T. ) ;
#141 = EDGE_CURVE ( 'NONE', #96, #98, #137, .T. ) ;
#142 = EDGE_CURVE ( 'NONE', #98, #96, #148, .T. ) ;
#143 = EDGE_CURVE ( 'NONE', #97, #98, #39, .T. ) ;
#144 = EDGE_CURVE ( 'NONE', #99, #97, #138, .T. ) ;
#145 = ADVANCED_FACE ( 'NONE', ( #118 ), #126, .T. ) ;
#146 = ADVANCED_FACE ( 'NONE', ( #121 ), #129, .T. ) ;
#147 = ADVANCED_FACE ( 'NONE', ( #128 ), #50, .F. ) ;
#148 = CIRCLE ( 'NONE', #14, 0.1250000000000000000 ) ;
#149 = PRESENTATION_LAYER_ASSIGNMENT (  '', '', ( #112 ) ) ;
ENDSEC;
END-ISO-10303-21;
