ISO-10303-21;
HEADER;
FILE_DESCRIPTION (( 'STEP AP214' ),
    '1' );
FILE_NAME ('R500C.step',
    '2012-04-20T21:06:03',
    ( '' ),
    ( '' ),
    'SwSTEP 2.0',
    'SolidWorks 2012',
    '' );
FILE_SCHEMA (( 'AUTOMOTIVE_DESIGN' ));
ENDSEC;

DATA;
#1 = STYLED_ITEM ( 'NONE', ( #82 ), #7 ) ;
#2 = PRESENTATION_LAYER_ASSIGNMENT (  '', '', ( #1 ) ) ;
#3 = CLOSED_SHELL ( 'NONE', ( #142, #143, #128, #145 ) ) ;
#4 = MECHANICAL_DESIGN_GEOMETRIC_PRESENTATION_REPRESENTATION (  '', ( #1 ), #127 ) ;
#5 = LENGTH_MEASURE_WITH_UNIT ( LENGTH_MEASURE( 0.02539999999999999900 ), #60 );
#6 = AXIS2_PLACEMENT_3D ( 'NONE', #57, #58, #59 ) ;
#7 = MANIFOLD_SOLID_BREP ( 'Boss-Extrude1', #3 ) ;
#8 = UNCERTAINTY_MEASURE_WITH_UNIT (LENGTH_MEASURE( 1.000000000000000100E-005 ), #61, 'distance_accuracy_value', 'NONE');
#9 = ADVANCED_BREP_SHAPE_REPRESENTATION ( 'R500C', ( #7, #16 ), #125 ) ;
#10 = UNCERTAINTY_MEASURE_WITH_UNIT (LENGTH_MEASURE( 1.000000000000000100E-005 ), #72, 'distance_accuracy_value', 'NONE');
#11 = UNCERTAINTY_MEASURE_WITH_UNIT (LENGTH_MEASURE( 1.000000000000000100E-005 ), #14, 'distance_accuracy_value', 'NONE');
#12 =( NAMED_UNIT ( * ) SI_UNIT ( $, .STERADIAN. ) SOLID_ANGLE_UNIT ( ) );
#13 =( NAMED_UNIT ( * ) PLANE_ANGLE_UNIT ( ) SI_UNIT ( $, .RADIAN. ) );
#14 =( CONVERSION_BASED_UNIT ( 'INCH', #121 ) LENGTH_UNIT ( ) NAMED_UNIT ( #20 ) );
#15 = LENGTH_MEASURE_WITH_UNIT ( LENGTH_MEASURE( 0.02539999999999999900 ), #71 );
#16 = AXIS2_PLACEMENT_3D ( 'NONE', #75, #76, #77 ) ;
#17 = PRODUCT_DEFINITION_FORMATION_WITH_SPECIFIED_SOURCE ( 'ANY', '', #23, .NOT_KNOWN. ) ;
#18 = STYLED_ITEM ( 'NONE', ( #70 ), #9 ) ;
#19 = PRESENTATION_LAYER_ASSIGNMENT (  '', '', ( #18 ) ) ;
#20 = DIMENSIONAL_EXPONENTS ( 1.000000000000000000, 0.0000000000000000000, 0.0000000000000000000, 0.0000000000000000000, 0.0000000000000000000, 0.0000000000000000000, 0.0000000000000000000 ) ;
#21 = DIMENSIONAL_EXPONENTS ( 1.000000000000000000, 0.0000000000000000000, 0.0000000000000000000, 0.0000000000000000000, 0.0000000000000000000, 0.0000000000000000000, 0.0000000000000000000 ) ;
#22 = DIMENSIONAL_EXPONENTS ( 1.000000000000000000, 0.0000000000000000000, 0.0000000000000000000, 0.0000000000000000000, 0.0000000000000000000, 0.0000000000000000000, 0.0000000000000000000 ) ;
#23 = PRODUCT ( 'R500C', 'R500C', '', ( #79 ) ) ;
#24 = CARTESIAN_POINT ( 'NONE',  ( 2.296212748401287700E-017, 0.5000000000000000000, 0.1875000000000000300 ) ) ;
#25 = CARTESIAN_POINT ( 'NONE',  ( 0.0000000000000000000, 0.0000000000000000000, -0.1875000000000000300 ) ) ;
#26 = CARTESIAN_POINT ( 'NONE',  ( 0.0000000000000000000, 0.5000000000000000000, -0.1875000000000000300 ) ) ;
#27 = CARTESIAN_POINT ( 'NONE',  ( 2.296212748401287700E-017, 0.0000000000000000000, 0.1875000000000000300 ) ) ;
#28 = PLANE ( 'NONE',  #124 ) ;
#29 = CARTESIAN_POINT ( 'NONE',  ( 0.0000000000000000000, 0.5000000000000000000, 0.0000000000000000000 ) ) ;
#30 = DIRECTION ( 'NONE',  ( 0.0000000000000000000, 1.000000000000000000, 0.0000000000000000000 ) ) ;
#31 = DIRECTION ( 'NONE',  ( 0.0000000000000000000, -0.0000000000000000000, 1.000000000000000000 ) ) ;
#32 = CARTESIAN_POINT ( 'NONE',  ( 0.0000000000000000000, 0.5000000000000000000, 0.0000000000000000000 ) ) ;
#33 = DIRECTION ( 'NONE',  ( 0.0000000000000000000, 1.000000000000000000, 0.0000000000000000000 ) ) ;
#34 = DIRECTION ( 'NONE',  ( 0.0000000000000000000, 0.0000000000000000000, 1.000000000000000000 ) ) ;
#35 = CARTESIAN_POINT ( 'NONE',  ( 0.0000000000000000000, 0.0000000000000000000, 0.0000000000000000000 ) ) ;
#36 = DIRECTION ( 'NONE',  ( 0.0000000000000000000, 1.000000000000000000, 0.0000000000000000000 ) ) ;
#37 = DIRECTION ( 'NONE',  ( 0.0000000000000000000, 0.0000000000000000000, 1.000000000000000000 ) ) ;
#38 = CARTESIAN_POINT ( 'NONE',  ( 0.0000000000000000000, 0.5000000000000000000, 0.0000000000000000000 ) ) ;
#39 = LINE ( 'NONE', #40, #115 ) ;
#40 = CARTESIAN_POINT ( 'NONE',  ( 0.0000000000000000000, 0.5000000000000000000, -0.1875000000000000300 ) ) ;
#41 = DIRECTION ( 'NONE',  ( -0.0000000000000000000, -1.000000000000000000, -0.0000000000000000000 ) ) ;
#42 = DIRECTION ( 'NONE',  ( 0.0000000000000000000, 1.000000000000000000, 0.0000000000000000000 ) ) ;
#43 = DIRECTION ( 'NONE',  ( 0.0000000000000000000, 0.0000000000000000000, 1.000000000000000000 ) ) ;
#44 = CARTESIAN_POINT ( 'NONE',  ( 0.0000000000000000000, 0.0000000000000000000, 0.0000000000000000000 ) ) ;
#45 = DIRECTION ( 'NONE',  ( 0.0000000000000000000, 1.000000000000000000, 0.0000000000000000000 ) ) ;
#46 = DIRECTION ( 'NONE',  ( 0.0000000000000000000, 0.0000000000000000000, 1.000000000000000000 ) ) ;
#47 = CARTESIAN_POINT ( 'NONE',  ( 0.0000000000000000000, 0.5000000000000000000, 0.0000000000000000000 ) ) ;
#48 = LINE ( 'NONE', #49, #101 ) ;
#49 = CARTESIAN_POINT ( 'NONE',  ( 2.296212748401287700E-017, 0.5000000000000000000, 0.1875000000000000300 ) ) ;
#50 = DIRECTION ( 'NONE',  ( -0.0000000000000000000, -1.000000000000000000, -0.0000000000000000000 ) ) ;
#51 = DIRECTION ( 'NONE',  ( -0.0000000000000000000, -1.000000000000000000, -0.0000000000000000000 ) ) ;
#52 = DIRECTION ( 'NONE',  ( 0.0000000000000000000, 0.0000000000000000000, -1.000000000000000000 ) ) ;
#53 = CARTESIAN_POINT ( 'NONE',  ( 0.0000000000000000000, 0.5000000000000000000, 0.0000000000000000000 ) ) ;
#54 = DIRECTION ( 'NONE',  ( -0.0000000000000000000, -1.000000000000000000, -0.0000000000000000000 ) ) ;
#55 = DIRECTION ( 'NONE',  ( 0.0000000000000000000, 0.0000000000000000000, -1.000000000000000000 ) ) ;
#56 = PLANE ( 'NONE',  #6 ) ;
#57 = CARTESIAN_POINT ( 'NONE',  ( 0.0000000000000000000, 0.0000000000000000000, 0.0000000000000000000 ) ) ;
#58 = DIRECTION ( 'NONE',  ( 0.0000000000000000000, 1.000000000000000000, 0.0000000000000000000 ) ) ;
#59 = DIRECTION ( 'NONE',  ( 0.0000000000000000000, -0.0000000000000000000, 1.000000000000000000 ) ) ;
#60 =( LENGTH_UNIT ( ) NAMED_UNIT ( * ) SI_UNIT ( $, .METRE. ) );
#61 =( CONVERSION_BASED_UNIT ( 'INCH', #5 ) LENGTH_UNIT ( ) NAMED_UNIT ( #21 ) );
#62 =( NAMED_UNIT ( * ) PLANE_ANGLE_UNIT ( ) SI_UNIT ( $, .RADIAN. ) );
#63 =( NAMED_UNIT ( * ) SI_UNIT ( $, .STERADIAN. ) SOLID_ANGLE_UNIT ( ) );
#64 = APPLICATION_PROTOCOL_DEFINITION ( 'draft international standard', 'automotive_design', 1998, #149 ) ;
#65 = FILL_AREA_STYLE_COLOUR ( '', #131 ) ;
#66 = FILL_AREA_STYLE ('',( #65 ) ) ;
#67 = SURFACE_STYLE_FILL_AREA ( #66 ) ;
#68 = SURFACE_SIDE_STYLE ('',( #67 ) ) ;
#69 = SURFACE_STYLE_USAGE ( .BOTH. , #68 ) ;
#70 = PRESENTATION_STYLE_ASSIGNMENT (( #69 ) ) ;
#71 =( LENGTH_UNIT ( ) NAMED_UNIT ( * ) SI_UNIT ( $, .METRE. ) );
#72 =( CONVERSION_BASED_UNIT ( 'INCH', #15 ) LENGTH_UNIT ( ) NAMED_UNIT ( #22 ) );
#73 =( NAMED_UNIT ( * ) PLANE_ANGLE_UNIT ( ) SI_UNIT ( $, .RADIAN. ) );
#74 =( NAMED_UNIT ( * ) SI_UNIT ( $, .STERADIAN. ) SOLID_ANGLE_UNIT ( ) );
#75 = CARTESIAN_POINT ( 'NONE',  ( 0.0000000000000000000, 0.0000000000000000000, 0.0000000000000000000 ) ) ;
#76 = DIRECTION ( 'NONE',  ( 0.0000000000000000000, 0.0000000000000000000, 1.000000000000000000 ) ) ;
#77 = DIRECTION ( 'NONE',  ( 1.000000000000000000, 0.0000000000000000000, 0.0000000000000000000 ) ) ;
#78 = SHAPE_DEFINITION_REPRESENTATION ( #146, #9 ) ;
#79 = PRODUCT_CONTEXT ( 'NONE', #149, 'mechanical' ) ;
#80 = APPLICATION_PROTOCOL_DEFINITION ( 'draft international standard', 'automotive_design', 1998, #148 ) ;
#81 =( LENGTH_UNIT ( ) NAMED_UNIT ( * ) SI_UNIT ( $, .METRE. ) );
#82 = PRESENTATION_STYLE_ASSIGNMENT (( #83 ) ) ;
#83 = SURFACE_STYLE_USAGE ( .BOTH. , #84 ) ;
#84 = SURFACE_SIDE_STYLE ('',( #85 ) ) ;
#85 = SURFACE_STYLE_FILL_AREA ( #86 ) ;
#86 = FILL_AREA_STYLE ('',( #87 ) ) ;
#87 = FILL_AREA_STYLE_COLOUR ( '', #135 ) ;
#88 = VERTEX_POINT ( 'NONE', #24 ) ;
#89 = VERTEX_POINT ( 'NONE', #25 ) ;
#90 = VERTEX_POINT ( 'NONE', #26 ) ;
#91 = VERTEX_POINT ( 'NONE', #27 ) ;
#92 = ORIENTED_EDGE ( 'NONE', *, *, #137, .T. ) ;
#93 = ORIENTED_EDGE ( 'NONE', *, *, #136, .F. ) ;
#94 = ORIENTED_EDGE ( 'NONE', *, *, #141, .T. ) ;
#95 = ORIENTED_EDGE ( 'NONE', *, *, #138, .F. ) ;
#96 = MECHANICAL_DESIGN_GEOMETRIC_PRESENTATION_REPRESENTATION (  '', ( #18 ), #126 ) ;
#97 = AXIS2_PLACEMENT_3D ( 'NONE', #53, #54, #55 ) ;
#98 = CYLINDRICAL_SURFACE ( 'NONE', #97, 0.1875000000000000300 ) ;
#99 = AXIS2_PLACEMENT_3D ( 'NONE', #47, #51, #52 ) ;
#100 = CYLINDRICAL_SURFACE ( 'NONE', #99, 0.1875000000000000300 ) ;
#101 = VECTOR ( 'NONE', #50, 39.37007874015748100 ) ;
#102 = ORIENTED_EDGE ( 'NONE', *, *, #140, .F. ) ;
#103 = ORIENTED_EDGE ( 'NONE', *, *, #139, .F. ) ;
#104 = ORIENTED_EDGE ( 'NONE', *, *, #138, .T. ) ;
#105 = ORIENTED_EDGE ( 'NONE', *, *, #140, .T. ) ;
#106 = ORIENTED_EDGE ( 'NONE', *, *, #139, .T. ) ;
#107 = EDGE_LOOP ( 'NONE', ( #102, #110 ) ) ;
#108 = EDGE_LOOP ( 'NONE', ( #106, #113 ) ) ;
#109 = EDGE_LOOP ( 'NONE', ( #93, #94, #92, #95 ) ) ;
#110 = ORIENTED_EDGE ( 'NONE', *, *, #137, .F. ) ;
#111 = EDGE_LOOP ( 'NONE', ( #112, #103, #104, #105 ) ) ;
#112 = ORIENTED_EDGE ( 'NONE', *, *, #141, .F. ) ;
#113 = ORIENTED_EDGE ( 'NONE', *, *, #136, .T. ) ;
#114 = FACE_OUTER_BOUND ( 'NONE', #109, .T. ) ;
#115 = VECTOR ( 'NONE', #41, 39.37007874015748100 ) ;
#116 = AXIS2_PLACEMENT_3D ( 'NONE', #44, #45, #46 ) ;
#117 = FACE_OUTER_BOUND ( 'NONE', #108, .T. ) ;
#118 = FACE_OUTER_BOUND ( 'NONE', #111, .T. ) ;
#119 = FACE_OUTER_BOUND ( 'NONE', #107, .T. ) ;
#120 = AXIS2_PLACEMENT_3D ( 'NONE', #35, #36, #37 ) ;
#121 = LENGTH_MEASURE_WITH_UNIT ( LENGTH_MEASURE( 0.02539999999999999900 ), #81 );
#122 = AXIS2_PLACEMENT_3D ( 'NONE', #32, #33, #34 ) ;
#123 = AXIS2_PLACEMENT_3D ( 'NONE', #38, #42, #43 ) ;
#124 = AXIS2_PLACEMENT_3D ( 'NONE', #29, #30, #31 ) ;
#125 =( GEOMETRIC_REPRESENTATION_CONTEXT ( 3 ) GLOBAL_UNCERTAINTY_ASSIGNED_CONTEXT ( ( #8 ) ) GLOBAL_UNIT_ASSIGNED_CONTEXT ( ( #61, #62, #63 ) ) REPRESENTATION_CONTEXT ( 'NONE', 'WORKASPACE' ) );
#126 =( GEOMETRIC_REPRESENTATION_CONTEXT ( 3 ) GLOBAL_UNCERTAINTY_ASSIGNED_CONTEXT ( ( #10 ) ) GLOBAL_UNIT_ASSIGNED_CONTEXT ( ( #72, #73, #74 ) ) REPRESENTATION_CONTEXT ( 'NONE', 'WORKASPACE' ) );
#127 =( GEOMETRIC_REPRESENTATION_CONTEXT ( 3 ) GLOBAL_UNCERTAINTY_ASSIGNED_CONTEXT ( ( #11 ) ) GLOBAL_UNIT_ASSIGNED_CONTEXT ( ( #14, #13, #12 ) ) REPRESENTATION_CONTEXT ( 'NONE', 'WORKASPACE' ) );
#128 = ADVANCED_FACE ( 'NONE', ( #117 ), #28, .T. ) ;
#129 = PRODUCT_RELATED_PRODUCT_CATEGORY ( 'part', '', ( #23 ) ) ;
#130 = PRODUCT_DEFINITION ( 'UNKNOWN', '', #17, #147 ) ;
#131 = COLOUR_RGB ( '',0.5686274509803921400, 0.5686274509803921400, 0.5882352941176470800 ) ;
#132 = CIRCLE ( 'NONE', #123, 0.1875000000000000300 ) ;
#133 = CIRCLE ( 'NONE', #116, 0.1875000000000000300 ) ;
#134 = CIRCLE ( 'NONE', #122, 0.1875000000000000300 ) ;
#135 = COLOUR_RGB ( '',0.5686274509803921400, 0.5686274509803921400, 0.5882352941176470800 ) ;
#136 = EDGE_CURVE ( 'NONE', #88, #90, #134, .T. ) ;
#137 = EDGE_CURVE ( 'NONE', #91, #89, #144, .T. ) ;
#138 = EDGE_CURVE ( 'NONE', #90, #89, #39, .T. ) ;
#139 = EDGE_CURVE ( 'NONE', #90, #88, #132, .T. ) ;
#140 = EDGE_CURVE ( 'NONE', #89, #91, #133, .T. ) ;
#141 = EDGE_CURVE ( 'NONE', #88, #91, #48, .T. ) ;
#142 = ADVANCED_FACE ( 'NONE', ( #114 ), #100, .T. ) ;
#143 = ADVANCED_FACE ( 'NONE', ( #118 ), #98, .T. ) ;
#144 = CIRCLE ( 'NONE', #120, 0.1875000000000000300 ) ;
#145 = ADVANCED_FACE ( 'NONE', ( #119 ), #56, .F. ) ;
#146 = PRODUCT_DEFINITION_SHAPE ( 'NONE', 'NONE',  #130 ) ;
#147 = PRODUCT_DEFINITION_CONTEXT ( 'detailed design', #148, 'design' ) ;
#148 = APPLICATION_CONTEXT ( 'automotive_design' ) ;
#149 = APPLICATION_CONTEXT ( 'automotive_design' ) ;
ENDSEC;
END-ISO-10303-21;
