ISO-10303-21;
HEADER;
FILE_DESCRIPTION (( 'STEP AP214' ),
    '1' );
FILE_NAME ('R500D.step',
    '2012-04-20T21:06:10',
    ( '' ),
    ( '' ),
    'SwSTEP 2.0',
    'SolidWorks 2012',
    '' );
FILE_SCHEMA (( 'AUTOMOTIVE_DESIGN' ));
ENDSEC;

DATA;
#1 = CARTESIAN_POINT ( 'NONE',  ( 0.0000000000000000000, 0.0000000000000000000, 0.0000000000000000000 ) ) ;
#2 =( GEOMETRIC_REPRESENTATION_CONTEXT ( 3 ) GLOBAL_UNCERTAINTY_ASSIGNED_CONTEXT ( ( #27 ) ) GLOBAL_UNIT_ASSIGNED_CONTEXT ( ( #89, #90, #91 ) ) REPRESENTATION_CONTEXT ( 'NONE', 'WORKASPACE' ) );
#3 =( GEOMETRIC_REPRESENTATION_CONTEXT ( 3 ) GLOBAL_UNCERTAINTY_ASSIGNED_CONTEXT ( ( #24 ) ) GLOBAL_UNIT_ASSIGNED_CONTEXT ( ( #100, #101, #102 ) ) REPRESENTATION_CONTEXT ( 'NONE', 'WORKASPACE' ) );
#4 = AXIS2_PLACEMENT_3D ( 'NONE', #75, #76, #77 ) ;
#5 = MECHANICAL_DESIGN_GEOMETRIC_PRESENTATION_REPRESENTATION (  '', ( #6 ), #59 ) ;
#6 = STYLED_ITEM ( 'NONE', ( #83 ), #149 ) ;
#7 = PRESENTATION_LAYER_ASSIGNMENT (  '', '', ( #6 ) ) ;
#8 = ORIENTED_EDGE ( 'NONE', *, *, #141, .F. ) ;
#9 = ORIENTED_EDGE ( 'NONE', *, *, #140, .F. ) ;
#10 = CARTESIAN_POINT ( 'NONE',  ( 3.061616997868383000E-017, 0.0000000000000000000, 0.2500000000000000000 ) ) ;
#11 = ORIENTED_EDGE ( 'NONE', *, *, #140, .T. ) ;
#12 = VERTEX_POINT ( 'NONE', #17 ) ;
#13 = VERTEX_POINT ( 'NONE', #14 ) ;
#14 = CARTESIAN_POINT ( 'NONE',  ( 3.061616997868383000E-017, 0.5000000000000000000, 0.2500000000000000000 ) ) ;
#15 = ORIENTED_EDGE ( 'NONE', *, *, #144, .T. ) ;
#16 = CARTESIAN_POINT ( 'NONE',  ( 0.0000000000000000000, 0.5000000000000000000, 0.0000000000000000000 ) ) ;
#17 = CARTESIAN_POINT ( 'NONE',  ( 0.0000000000000000000, 0.0000000000000000000, -0.2500000000000000000 ) ) ;
#18 = VERTEX_POINT ( 'NONE', #22 ) ;
#19 = PLANE ( 'NONE',  #127 ) ;
#20 = ORIENTED_EDGE ( 'NONE', *, *, #142, .T. ) ;
#21 = ORIENTED_EDGE ( 'NONE', *, *, #142, .F. ) ;
#22 = CARTESIAN_POINT ( 'NONE',  ( 0.0000000000000000000, 0.5000000000000000000, -0.2500000000000000000 ) ) ;
#23 = VERTEX_POINT ( 'NONE', #10 ) ;
#24 = UNCERTAINTY_MEASURE_WITH_UNIT (LENGTH_MEASURE( 1.000000000000000100E-005 ), #100, 'distance_accuracy_value', 'NONE');
#25 = UNCERTAINTY_MEASURE_WITH_UNIT (LENGTH_MEASURE( 1.000000000000000100E-005 ), #85, 'distance_accuracy_value', 'NONE');
#26 = ADVANCED_BREP_SHAPE_REPRESENTATION ( 'R500D', ( #149, #57 ), #2 ) ;
#27 = UNCERTAINTY_MEASURE_WITH_UNIT (LENGTH_MEASURE( 1.000000000000000100E-005 ), #89, 'distance_accuracy_value', 'NONE');
#28 = CARTESIAN_POINT ( 'NONE',  ( 0.0000000000000000000, 0.5000000000000000000, 0.0000000000000000000 ) ) ;
#29 = CARTESIAN_POINT ( 'NONE',  ( 0.0000000000000000000, 0.0000000000000000000, 0.0000000000000000000 ) ) ;
#30 = DIRECTION ( 'NONE',  ( 0.0000000000000000000, 0.0000000000000000000, 1.000000000000000000 ) ) ;
#31 = DIRECTION ( 'NONE',  ( 0.0000000000000000000, 1.000000000000000000, 0.0000000000000000000 ) ) ;
#32 = LINE ( 'NONE', #33, #129 ) ;
#33 = CARTESIAN_POINT ( 'NONE',  ( 0.0000000000000000000, 0.5000000000000000000, -0.2500000000000000000 ) ) ;
#34 = DIRECTION ( 'NONE',  ( -0.0000000000000000000, -1.000000000000000000, -0.0000000000000000000 ) ) ;
#35 = DIRECTION ( 'NONE',  ( 0.0000000000000000000, -0.0000000000000000000, 1.000000000000000000 ) ) ;
#36 = DIRECTION ( 'NONE',  ( 0.0000000000000000000, 1.000000000000000000, 0.0000000000000000000 ) ) ;
#37 = LENGTH_MEASURE_WITH_UNIT ( LENGTH_MEASURE( 0.02539999999999999900 ), #84 );
#38 = DIMENSIONAL_EXPONENTS ( 1.000000000000000000, 0.0000000000000000000, 0.0000000000000000000, 0.0000000000000000000, 0.0000000000000000000, 0.0000000000000000000, 0.0000000000000000000 ) ;
#39 = DIMENSIONAL_EXPONENTS ( 1.000000000000000000, 0.0000000000000000000, 0.0000000000000000000, 0.0000000000000000000, 0.0000000000000000000, 0.0000000000000000000, 0.0000000000000000000 ) ;
#40 = DIMENSIONAL_EXPONENTS ( 1.000000000000000000, 0.0000000000000000000, 0.0000000000000000000, 0.0000000000000000000, 0.0000000000000000000, 0.0000000000000000000, 0.0000000000000000000 ) ;
#41 = PRODUCT ( 'R500D', 'R500D', '', ( #107 ) ) ;
#42 = PRODUCT_DEFINITION_CONTEXT ( 'detailed design', #117, 'design' ) ;
#43 = ORIENTED_EDGE ( 'NONE', *, *, #143, .F. ) ;
#44 = ORIENTED_EDGE ( 'NONE', *, *, #141, .T. ) ;
#45 = ORIENTED_EDGE ( 'NONE', *, *, #143, .T. ) ;
#46 = ORIENTED_EDGE ( 'NONE', *, *, #139, .T. ) ;
#47 = ORIENTED_EDGE ( 'NONE', *, *, #144, .F. ) ;
#48 = ORIENTED_EDGE ( 'NONE', *, *, #139, .F. ) ;
#49 = EDGE_LOOP ( 'NONE', ( #21, #47, #46, #45 ) ) ;
#50 = EDGE_LOOP ( 'NONE', ( #8, #20, #11, #48 ) ) ;
#51 = EDGE_LOOP ( 'NONE', ( #15, #44 ) ) ;
#52 = EDGE_LOOP ( 'NONE', ( #43, #9 ) ) ;
#53 = STYLED_ITEM ( 'NONE', ( #98 ), #26 ) ;
#54 = PRESENTATION_LAYER_ASSIGNMENT (  '', '', ( #53 ) ) ;
#55 = MECHANICAL_DESIGN_GEOMETRIC_PRESENTATION_REPRESENTATION (  '', ( #53 ), #3 ) ;
#56 = LENGTH_MEASURE_WITH_UNIT ( LENGTH_MEASURE( 0.02539999999999999900 ), #99 );
#57 = AXIS2_PLACEMENT_3D ( 'NONE', #103, #104, #105 ) ;
#58 = PRODUCT_DEFINITION_FORMATION_WITH_SPECIFIED_SOURCE ( 'ANY', '', #41, .NOT_KNOWN. ) ;
#59 =( GEOMETRIC_REPRESENTATION_CONTEXT ( 3 ) GLOBAL_UNCERTAINTY_ASSIGNED_CONTEXT ( ( #25 ) ) GLOBAL_UNIT_ASSIGNED_CONTEXT ( ( #85, #86, #87 ) ) REPRESENTATION_CONTEXT ( 'NONE', 'WORKASPACE' ) );
#60 = LINE ( 'NONE', #61, #128 ) ;
#61 = CARTESIAN_POINT ( 'NONE',  ( 3.061616997868383000E-017, 0.5000000000000000000, 0.2500000000000000000 ) ) ;
#62 = DIRECTION ( 'NONE',  ( -0.0000000000000000000, -1.000000000000000000, -0.0000000000000000000 ) ) ;
#63 = DIRECTION ( 'NONE',  ( 0.0000000000000000000, 1.000000000000000000, 0.0000000000000000000 ) ) ;
#64 = DIRECTION ( 'NONE',  ( 0.0000000000000000000, 0.0000000000000000000, 1.000000000000000000 ) ) ;
#65 = CARTESIAN_POINT ( 'NONE',  ( 0.0000000000000000000, 0.5000000000000000000, 0.0000000000000000000 ) ) ;
#66 = DIRECTION ( 'NONE',  ( 0.0000000000000000000, 1.000000000000000000, 0.0000000000000000000 ) ) ;
#67 = DIRECTION ( 'NONE',  ( 0.0000000000000000000, 0.0000000000000000000, 1.000000000000000000 ) ) ;
#68 = CARTESIAN_POINT ( 'NONE',  ( 0.0000000000000000000, 0.5000000000000000000, 0.0000000000000000000 ) ) ;
#69 = DIRECTION ( 'NONE',  ( -0.0000000000000000000, -1.000000000000000000, -0.0000000000000000000 ) ) ;
#70 = DIRECTION ( 'NONE',  ( 0.0000000000000000000, 0.0000000000000000000, -1.000000000000000000 ) ) ;
#71 = CARTESIAN_POINT ( 'NONE',  ( 0.0000000000000000000, 0.5000000000000000000, 0.0000000000000000000 ) ) ;
#72 = DIRECTION ( 'NONE',  ( -0.0000000000000000000, -1.000000000000000000, -0.0000000000000000000 ) ) ;
#73 = DIRECTION ( 'NONE',  ( 0.0000000000000000000, 0.0000000000000000000, -1.000000000000000000 ) ) ;
#74 = PLANE ( 'NONE',  #4 ) ;
#75 = CARTESIAN_POINT ( 'NONE',  ( 0.0000000000000000000, 0.0000000000000000000, 0.0000000000000000000 ) ) ;
#76 = DIRECTION ( 'NONE',  ( 0.0000000000000000000, 1.000000000000000000, 0.0000000000000000000 ) ) ;
#77 = DIRECTION ( 'NONE',  ( 0.0000000000000000000, -0.0000000000000000000, 1.000000000000000000 ) ) ;
#78 = FILL_AREA_STYLE_COLOUR ( '', #136 ) ;
#79 = FILL_AREA_STYLE ('',( #78 ) ) ;
#80 = SURFACE_STYLE_FILL_AREA ( #79 ) ;
#81 = SURFACE_SIDE_STYLE ('',( #80 ) ) ;
#82 = SURFACE_STYLE_USAGE ( .BOTH. , #81 ) ;
#83 = PRESENTATION_STYLE_ASSIGNMENT (( #82 ) ) ;
#84 =( LENGTH_UNIT ( ) NAMED_UNIT ( * ) SI_UNIT ( $, .METRE. ) );
#85 =( CONVERSION_BASED_UNIT ( 'INCH', #37 ) LENGTH_UNIT ( ) NAMED_UNIT ( #39 ) );
#86 =( NAMED_UNIT ( * ) PLANE_ANGLE_UNIT ( ) SI_UNIT ( $, .RADIAN. ) );
#87 =( NAMED_UNIT ( * ) SI_UNIT ( $, .STERADIAN. ) SOLID_ANGLE_UNIT ( ) );
#88 =( LENGTH_UNIT ( ) NAMED_UNIT ( * ) SI_UNIT ( $, .METRE. ) );
#89 =( CONVERSION_BASED_UNIT ( 'INCH', #113 ) LENGTH_UNIT ( ) NAMED_UNIT ( #38 ) );
#90 =( NAMED_UNIT ( * ) PLANE_ANGLE_UNIT ( ) SI_UNIT ( $, .RADIAN. ) );
#91 =( NAMED_UNIT ( * ) SI_UNIT ( $, .STERADIAN. ) SOLID_ANGLE_UNIT ( ) );
#92 = APPLICATION_PROTOCOL_DEFINITION ( 'draft international standard', 'automotive_design', 1998, #116 ) ;
#93 = FILL_AREA_STYLE_COLOUR ( '', #134 ) ;
#94 = FILL_AREA_STYLE ('',( #93 ) ) ;
#95 = SURFACE_STYLE_FILL_AREA ( #94 ) ;
#96 = SURFACE_SIDE_STYLE ('',( #95 ) ) ;
#97 = SURFACE_STYLE_USAGE ( .BOTH. , #96 ) ;
#98 = PRESENTATION_STYLE_ASSIGNMENT (( #97 ) ) ;
#99 =( LENGTH_UNIT ( ) NAMED_UNIT ( * ) SI_UNIT ( $, .METRE. ) );
#100 =( CONVERSION_BASED_UNIT ( 'INCH', #56 ) LENGTH_UNIT ( ) NAMED_UNIT ( #40 ) );
#101 =( NAMED_UNIT ( * ) PLANE_ANGLE_UNIT ( ) SI_UNIT ( $, .RADIAN. ) );
#102 =( NAMED_UNIT ( * ) SI_UNIT ( $, .STERADIAN. ) SOLID_ANGLE_UNIT ( ) );
#103 = CARTESIAN_POINT ( 'NONE',  ( 0.0000000000000000000, 0.0000000000000000000, 0.0000000000000000000 ) ) ;
#104 = DIRECTION ( 'NONE',  ( 0.0000000000000000000, 0.0000000000000000000, 1.000000000000000000 ) ) ;
#105 = DIRECTION ( 'NONE',  ( 1.000000000000000000, 0.0000000000000000000, 0.0000000000000000000 ) ) ;
#106 = SHAPE_DEFINITION_REPRESENTATION ( #130, #26 ) ;
#107 = PRODUCT_CONTEXT ( 'NONE', #116, 'mechanical' ) ;
#108 = APPLICATION_PROTOCOL_DEFINITION ( 'draft international standard', 'automotive_design', 1998, #117 ) ;
#109 = AXIS2_PLACEMENT_3D ( 'NONE', #71, #72, #73 ) ;
#110 = AXIS2_PLACEMENT_3D ( 'NONE', #68, #69, #70 ) ;
#111 = CYLINDRICAL_SURFACE ( 'NONE', #109, 0.2500000000000000000 ) ;
#112 = CYLINDRICAL_SURFACE ( 'NONE', #110, 0.2500000000000000000 ) ;
#113 = LENGTH_MEASURE_WITH_UNIT ( LENGTH_MEASURE( 0.02539999999999999900 ), #88 );
#114 = DIRECTION ( 'NONE',  ( 0.0000000000000000000, 1.000000000000000000, 0.0000000000000000000 ) ) ;
#115 = DIRECTION ( 'NONE',  ( 0.0000000000000000000, 0.0000000000000000000, 1.000000000000000000 ) ) ;
#116 = APPLICATION_CONTEXT ( 'automotive_design' ) ;
#117 = APPLICATION_CONTEXT ( 'automotive_design' ) ;
#118 = FACE_OUTER_BOUND ( 'NONE', #52, .T. ) ;
#119 = CLOSED_SHELL ( 'NONE', ( #145, #147, #132, #148 ) ) ;
#120 = FACE_OUTER_BOUND ( 'NONE', #49, .T. ) ;
#121 = AXIS2_PLACEMENT_3D ( 'NONE', #29, #31, #30 ) ;
#122 = AXIS2_PLACEMENT_3D ( 'NONE', #1, #63, #64 ) ;
#123 = AXIS2_PLACEMENT_3D ( 'NONE', #28, #114, #115 ) ;
#124 = FACE_OUTER_BOUND ( 'NONE', #51, .T. ) ;
#125 = FACE_OUTER_BOUND ( 'NONE', #50, .T. ) ;
#126 = AXIS2_PLACEMENT_3D ( 'NONE', #65, #66, #67 ) ;
#127 = AXIS2_PLACEMENT_3D ( 'NONE', #16, #36, #35 ) ;
#128 = VECTOR ( 'NONE', #62, 39.37007874015748100 ) ;
#129 = VECTOR ( 'NONE', #34, 39.37007874015748100 ) ;
#130 = PRODUCT_DEFINITION_SHAPE ( 'NONE', 'NONE',  #133 ) ;
#131 = PRODUCT_RELATED_PRODUCT_CATEGORY ( 'part', '', ( #41 ) ) ;
#132 = ADVANCED_FACE ( 'NONE', ( #124 ), #19, .T. ) ;
#133 = PRODUCT_DEFINITION ( 'UNKNOWN', '', #58, #42 ) ;
#134 = COLOUR_RGB ( '',0.5686274509803921400, 0.5686274509803921400, 0.5882352941176470800 ) ;
#135 = CIRCLE ( 'NONE', #126, 0.2500000000000000000 ) ;
#136 = COLOUR_RGB ( '',0.5686274509803921400, 0.5686274509803921400, 0.5882352941176470800 ) ;
#137 = CIRCLE ( 'NONE', #121, 0.2500000000000000000 ) ;
#138 = CIRCLE ( 'NONE', #122, 0.2500000000000000000 ) ;
#139 = EDGE_CURVE ( 'NONE', #18, #12, #32, .T. ) ;
#140 = EDGE_CURVE ( 'NONE', #23, #12, #137, .T. ) ;
#141 = EDGE_CURVE ( 'NONE', #13, #18, #146, .T. ) ;
#142 = EDGE_CURVE ( 'NONE', #13, #23, #60, .T. ) ;
#143 = EDGE_CURVE ( 'NONE', #12, #23, #138, .T. ) ;
#144 = EDGE_CURVE ( 'NONE', #18, #13, #135, .T. ) ;
#145 = ADVANCED_FACE ( 'NONE', ( #125 ), #112, .T. ) ;
#146 = CIRCLE ( 'NONE', #123, 0.2500000000000000000 ) ;
#147 = ADVANCED_FACE ( 'NONE', ( #120 ), #111, .T. ) ;
#148 = ADVANCED_FACE ( 'NONE', ( #118 ), #74, .F. ) ;
#149 = MANIFOLD_SOLID_BREP ( 'Boss-Extrude1', #119 ) ;
ENDSEC;
END-ISO-10303-21;
