ISO-10303-21;
HEADER;
FILE_DESCRIPTION (( 'STEP AP214' ),
    '1' );
FILE_NAME ('R625E-N42.step',
    '2012-04-20T21:06:12',
    ( '' ),
    ( '' ),
    'SwSTEP 2.0',
    'SolidWorks 2012',
    '' );
FILE_SCHEMA (( 'AUTOMOTIVE_DESIGN' ));
ENDSEC;

DATA;
#1 = VECTOR ( 'NONE', #43, 39.37007874015748100 ) ;
#2 = FACE_OUTER_BOUND ( 'NONE', #13, .T. ) ;
#3 = AXIS2_PLACEMENT_3D ( 'NONE', #47, #48, #49 ) ;
#4 = CYLINDRICAL_SURFACE ( 'NONE', #29, 0.3125000000000000000 ) ;
#5 =( NAMED_UNIT ( * ) PLANE_ANGLE_UNIT ( ) SI_UNIT ( $, .RADIAN. ) );
#6 = AXIS2_PLACEMENT_3D ( 'NONE', #59, #60, #61 ) ;
#7 = CYLINDRICAL_SURFACE ( 'NONE', #6, 0.3125000000000000000 ) ;
#8 = AXIS2_PLACEMENT_3D ( 'NONE', #50, #54, #55 ) ;
#9 = VECTOR ( 'NONE', #53, 39.37007874015748100 ) ;
#10 = EDGE_LOOP ( 'NONE', ( #102, #103 ) ) ;
#11 = EDGE_LOOP ( 'NONE', ( #98, #104, #99, #14 ) ) ;
#12 = EDGE_LOOP ( 'NONE', ( #105, #100 ) ) ;
#13 = EDGE_LOOP ( 'NONE', ( #106, #96, #101, #97 ) ) ;
#14 = ORIENTED_EDGE ( 'NONE', *, *, #144, .T. ) ;
#15 = UNCERTAINTY_MEASURE_WITH_UNIT (LENGTH_MEASURE( 1.000000000000000100E-005 ), #81, 'distance_accuracy_value', 'NONE');
#16 = UNCERTAINTY_MEASURE_WITH_UNIT (LENGTH_MEASURE( 1.000000000000000100E-005 ), #117, 'distance_accuracy_value', 'NONE');
#17 = UNCERTAINTY_MEASURE_WITH_UNIT (LENGTH_MEASURE( 1.000000000000000100E-005 ), #70, 'distance_accuracy_value', 'NONE');
#18 = ADVANCED_BREP_SHAPE_REPRESENTATION ( 'R625E-N42', ( #128, #113 ), #129 ) ;
#19 = PRESENTATION_STYLE_ASSIGNMENT (( #20 ) ) ;
#20 = SURFACE_STYLE_USAGE ( .BOTH. , #21 ) ;
#21 = SURFACE_SIDE_STYLE ('',( #22 ) ) ;
#22 = SURFACE_STYLE_FILL_AREA ( #23 ) ;
#23 = FILL_AREA_STYLE ('',( #24 ) ) ;
#24 = FILL_AREA_STYLE_COLOUR ( '', #136 ) ;
#25 = CARTESIAN_POINT ( 'NONE',  ( 0.0000000000000000000, 0.6250000000000000000, -0.3125000000000000000 ) ) ;
#26 = CARTESIAN_POINT ( 'NONE',  ( 3.827021247335478900E-017, 0.6250000000000000000, 0.3125000000000000000 ) ) ;
#27 = FACE_OUTER_BOUND ( 'NONE', #11, .T. ) ;
#28 = FACE_OUTER_BOUND ( 'NONE', #12, .T. ) ;
#29 = AXIS2_PLACEMENT_3D ( 'NONE', #62, #63, #64 ) ;
#30 = DIMENSIONAL_EXPONENTS ( 1.000000000000000000, 0.0000000000000000000, 0.0000000000000000000, 0.0000000000000000000, 0.0000000000000000000, 0.0000000000000000000, 0.0000000000000000000 ) ;
#31 = DIMENSIONAL_EXPONENTS ( 1.000000000000000000, 0.0000000000000000000, 0.0000000000000000000, 0.0000000000000000000, 0.0000000000000000000, 0.0000000000000000000, 0.0000000000000000000 ) ;
#32 = DIMENSIONAL_EXPONENTS ( 1.000000000000000000, 0.0000000000000000000, 0.0000000000000000000, 0.0000000000000000000, 0.0000000000000000000, 0.0000000000000000000, 0.0000000000000000000 ) ;
#33 = PRODUCT ( 'R625E-N42', 'R625E-N42', '', ( #88 ) ) ;
#34 = PRODUCT_DEFINITION_SHAPE ( 'NONE', 'NONE',  #134 ) ;
#35 = PRODUCT_DEFINITION_CONTEXT ( 'detailed design', #116, 'design' ) ;
#36 =( NAMED_UNIT ( * ) SI_UNIT ( $, .STERADIAN. ) SOLID_ANGLE_UNIT ( ) );
#37 = PLANE ( 'NONE',  #122 ) ;
#38 = CARTESIAN_POINT ( 'NONE',  ( 0.0000000000000000000, 0.6250000000000000000, 0.0000000000000000000 ) ) ;
#39 = DIRECTION ( 'NONE',  ( 0.0000000000000000000, 1.000000000000000000, 0.0000000000000000000 ) ) ;
#40 = DIRECTION ( 'NONE',  ( 0.0000000000000000000, -0.0000000000000000000, 1.000000000000000000 ) ) ;
#41 = LINE ( 'NONE', #42, #1 ) ;
#42 = CARTESIAN_POINT ( 'NONE',  ( 3.827021247335478900E-017, 0.6250000000000000000, 0.3125000000000000000 ) ) ;
#43 = DIRECTION ( 'NONE',  ( -0.0000000000000000000, -1.000000000000000000, -0.0000000000000000000 ) ) ;
#44 = CARTESIAN_POINT ( 'NONE',  ( 0.0000000000000000000, 0.6250000000000000000, 0.0000000000000000000 ) ) ;
#45 = DIRECTION ( 'NONE',  ( 0.0000000000000000000, 1.000000000000000000, 0.0000000000000000000 ) ) ;
#46 = DIRECTION ( 'NONE',  ( 0.0000000000000000000, 0.0000000000000000000, 1.000000000000000000 ) ) ;
#47 = CARTESIAN_POINT ( 'NONE',  ( 0.0000000000000000000, 0.0000000000000000000, 0.0000000000000000000 ) ) ;
#48 = DIRECTION ( 'NONE',  ( 0.0000000000000000000, 1.000000000000000000, 0.0000000000000000000 ) ) ;
#49 = DIRECTION ( 'NONE',  ( 0.0000000000000000000, 0.0000000000000000000, 1.000000000000000000 ) ) ;
#50 = CARTESIAN_POINT ( 'NONE',  ( 0.0000000000000000000, 0.0000000000000000000, 0.0000000000000000000 ) ) ;
#51 = LINE ( 'NONE', #52, #9 ) ;
#52 = CARTESIAN_POINT ( 'NONE',  ( 0.0000000000000000000, 0.6250000000000000000, -0.3125000000000000000 ) ) ;
#53 = DIRECTION ( 'NONE',  ( -0.0000000000000000000, -1.000000000000000000, -0.0000000000000000000 ) ) ;
#54 = DIRECTION ( 'NONE',  ( 0.0000000000000000000, 1.000000000000000000, 0.0000000000000000000 ) ) ;
#55 = DIRECTION ( 'NONE',  ( 0.0000000000000000000, 0.0000000000000000000, 1.000000000000000000 ) ) ;
#56 = CARTESIAN_POINT ( 'NONE',  ( 0.0000000000000000000, 0.6250000000000000000, 0.0000000000000000000 ) ) ;
#57 = DIRECTION ( 'NONE',  ( 0.0000000000000000000, 1.000000000000000000, 0.0000000000000000000 ) ) ;
#58 = DIRECTION ( 'NONE',  ( 0.0000000000000000000, 0.0000000000000000000, 1.000000000000000000 ) ) ;
#59 = CARTESIAN_POINT ( 'NONE',  ( 0.0000000000000000000, 0.6250000000000000000, 0.0000000000000000000 ) ) ;
#60 = DIRECTION ( 'NONE',  ( -0.0000000000000000000, -1.000000000000000000, -0.0000000000000000000 ) ) ;
#61 = DIRECTION ( 'NONE',  ( 0.0000000000000000000, 0.0000000000000000000, -1.000000000000000000 ) ) ;
#62 = CARTESIAN_POINT ( 'NONE',  ( 0.0000000000000000000, 0.6250000000000000000, 0.0000000000000000000 ) ) ;
#63 = DIRECTION ( 'NONE',  ( -0.0000000000000000000, -1.000000000000000000, -0.0000000000000000000 ) ) ;
#64 = DIRECTION ( 'NONE',  ( 0.0000000000000000000, 0.0000000000000000000, -1.000000000000000000 ) ) ;
#65 = PLANE ( 'NONE',  #107 ) ;
#66 = CARTESIAN_POINT ( 'NONE',  ( 0.0000000000000000000, 0.0000000000000000000, 0.0000000000000000000 ) ) ;
#67 = DIRECTION ( 'NONE',  ( 0.0000000000000000000, 1.000000000000000000, 0.0000000000000000000 ) ) ;
#68 = DIRECTION ( 'NONE',  ( 0.0000000000000000000, -0.0000000000000000000, 1.000000000000000000 ) ) ;
#69 =( LENGTH_UNIT ( ) NAMED_UNIT ( * ) SI_UNIT ( $, .METRE. ) );
#70 =( CONVERSION_BASED_UNIT ( 'INCH', #108 ) LENGTH_UNIT ( ) NAMED_UNIT ( #31 ) );
#71 =( NAMED_UNIT ( * ) PLANE_ANGLE_UNIT ( ) SI_UNIT ( $, .RADIAN. ) );
#72 =( NAMED_UNIT ( * ) SI_UNIT ( $, .STERADIAN. ) SOLID_ANGLE_UNIT ( ) );
#73 = APPLICATION_PROTOCOL_DEFINITION ( 'draft international standard', 'automotive_design', 1998, #115 ) ;
#74 = FILL_AREA_STYLE_COLOUR ( '', #135 ) ;
#75 = FILL_AREA_STYLE ('',( #74 ) ) ;
#76 = SURFACE_STYLE_FILL_AREA ( #75 ) ;
#77 = SURFACE_SIDE_STYLE ('',( #76 ) ) ;
#78 = SURFACE_STYLE_USAGE ( .BOTH. , #77 ) ;
#79 = PRESENTATION_STYLE_ASSIGNMENT (( #78 ) ) ;
#80 =( LENGTH_UNIT ( ) NAMED_UNIT ( * ) SI_UNIT ( $, .METRE. ) );
#81 =( CONVERSION_BASED_UNIT ( 'INCH', #112 ) LENGTH_UNIT ( ) NAMED_UNIT ( #32 ) );
#82 =( NAMED_UNIT ( * ) PLANE_ANGLE_UNIT ( ) SI_UNIT ( $, .RADIAN. ) );
#83 =( NAMED_UNIT ( * ) SI_UNIT ( $, .STERADIAN. ) SOLID_ANGLE_UNIT ( ) );
#84 = CARTESIAN_POINT ( 'NONE',  ( 0.0000000000000000000, 0.0000000000000000000, 0.0000000000000000000 ) ) ;
#85 = DIRECTION ( 'NONE',  ( 0.0000000000000000000, 0.0000000000000000000, 1.000000000000000000 ) ) ;
#86 = DIRECTION ( 'NONE',  ( 1.000000000000000000, 0.0000000000000000000, 0.0000000000000000000 ) ) ;
#87 = SHAPE_DEFINITION_REPRESENTATION ( #34, #18 ) ;
#88 = PRODUCT_CONTEXT ( 'NONE', #115, 'mechanical' ) ;
#89 = APPLICATION_PROTOCOL_DEFINITION ( 'draft international standard', 'automotive_design', 1998, #116 ) ;
#90 = CARTESIAN_POINT ( 'NONE',  ( 3.827021247335478900E-017, 0.0000000000000000000, 0.3125000000000000000 ) ) ;
#91 = CARTESIAN_POINT ( 'NONE',  ( 0.0000000000000000000, 0.0000000000000000000, -0.3125000000000000000 ) ) ;
#92 = VERTEX_POINT ( 'NONE', #91 ) ;
#93 = VERTEX_POINT ( 'NONE', #90 ) ;
#94 = VERTEX_POINT ( 'NONE', #26 ) ;
#95 = VERTEX_POINT ( 'NONE', #25 ) ;
#96 = ORIENTED_EDGE ( 'NONE', *, *, #140, .T. ) ;
#97 = ORIENTED_EDGE ( 'NONE', *, *, #143, .F. ) ;
#98 = ORIENTED_EDGE ( 'NONE', *, *, #140, .F. ) ;
#99 = ORIENTED_EDGE ( 'NONE', *, *, #143, .T. ) ;
#100 = ORIENTED_EDGE ( 'NONE', *, *, #142, .F. ) ;
#101 = ORIENTED_EDGE ( 'NONE', *, *, #142, .T. ) ;
#102 = ORIENTED_EDGE ( 'NONE', *, *, #145, .T. ) ;
#103 = ORIENTED_EDGE ( 'NONE', *, *, #141, .T. ) ;
#104 = ORIENTED_EDGE ( 'NONE', *, *, #145, .F. ) ;
#105 = ORIENTED_EDGE ( 'NONE', *, *, #144, .F. ) ;
#106 = ORIENTED_EDGE ( 'NONE', *, *, #141, .F. ) ;
#107 = AXIS2_PLACEMENT_3D ( 'NONE', #66, #67, #68 ) ;
#108 = LENGTH_MEASURE_WITH_UNIT ( LENGTH_MEASURE( 0.02539999999999999900 ), #69 );
#109 = STYLED_ITEM ( 'NONE', ( #79 ), #18 ) ;
#110 = PRESENTATION_LAYER_ASSIGNMENT (  '', '', ( #109 ) ) ;
#111 = MECHANICAL_DESIGN_GEOMETRIC_PRESENTATION_REPRESENTATION (  '', ( #109 ), #130 ) ;
#112 = LENGTH_MEASURE_WITH_UNIT ( LENGTH_MEASURE( 0.02539999999999999900 ), #80 );
#113 = AXIS2_PLACEMENT_3D ( 'NONE', #84, #85, #86 ) ;
#114 = PRODUCT_DEFINITION_FORMATION_WITH_SPECIFIED_SOURCE ( 'ANY', '', #33, .NOT_KNOWN. ) ;
#115 = APPLICATION_CONTEXT ( 'automotive_design' ) ;
#116 = APPLICATION_CONTEXT ( 'automotive_design' ) ;
#117 =( CONVERSION_BASED_UNIT ( 'INCH', #119 ) LENGTH_UNIT ( ) NAMED_UNIT ( #30 ) );
#118 =( LENGTH_UNIT ( ) NAMED_UNIT ( * ) SI_UNIT ( $, .METRE. ) );
#119 = LENGTH_MEASURE_WITH_UNIT ( LENGTH_MEASURE( 0.02539999999999999900 ), #118 );
#120 = MECHANICAL_DESIGN_GEOMETRIC_PRESENTATION_REPRESENTATION (  '', ( #124 ), #131 ) ;
#121 = AXIS2_PLACEMENT_3D ( 'NONE', #44, #45, #46 ) ;
#122 = AXIS2_PLACEMENT_3D ( 'NONE', #38, #39, #40 ) ;
#123 = CLOSED_SHELL ( 'NONE', ( #146, #147, #132, #148 ) ) ;
#124 = STYLED_ITEM ( 'NONE', ( #19 ), #128 ) ;
#125 = PRESENTATION_LAYER_ASSIGNMENT (  '', '', ( #124 ) ) ;
#126 = FACE_OUTER_BOUND ( 'NONE', #10, .T. ) ;
#127 = AXIS2_PLACEMENT_3D ( 'NONE', #56, #57, #58 ) ;
#128 = MANIFOLD_SOLID_BREP ( 'Boss-Extrude1', #123 ) ;
#129 =( GEOMETRIC_REPRESENTATION_CONTEXT ( 3 ) GLOBAL_UNCERTAINTY_ASSIGNED_CONTEXT ( ( #17 ) ) GLOBAL_UNIT_ASSIGNED_CONTEXT ( ( #70, #71, #72 ) ) REPRESENTATION_CONTEXT ( 'NONE', 'WORKASPACE' ) );
#130 =( GEOMETRIC_REPRESENTATION_CONTEXT ( 3 ) GLOBAL_UNCERTAINTY_ASSIGNED_CONTEXT ( ( #15 ) ) GLOBAL_UNIT_ASSIGNED_CONTEXT ( ( #81, #82, #83 ) ) REPRESENTATION_CONTEXT ( 'NONE', 'WORKASPACE' ) );
#131 =( GEOMETRIC_REPRESENTATION_CONTEXT ( 3 ) GLOBAL_UNCERTAINTY_ASSIGNED_CONTEXT ( ( #16 ) ) GLOBAL_UNIT_ASSIGNED_CONTEXT ( ( #117, #5, #36 ) ) REPRESENTATION_CONTEXT ( 'NONE', 'WORKASPACE' ) );
#132 = ADVANCED_FACE ( 'NONE', ( #126 ), #37, .T. ) ;
#133 = PRODUCT_RELATED_PRODUCT_CATEGORY ( 'part', '', ( #33 ) ) ;
#134 = PRODUCT_DEFINITION ( 'UNKNOWN', '', #114, #35 ) ;
#135 = COLOUR_RGB ( '',0.5686274509803921400, 0.5686274509803921400, 0.5882352941176470800 ) ;
#136 = COLOUR_RGB ( '',0.5686274509803921400, 0.5686274509803921400, 0.5882352941176470800 ) ;
#137 = CIRCLE ( 'NONE', #121, 0.3125000000000000000 ) ;
#138 = CIRCLE ( 'NONE', #8, 0.3125000000000000000 ) ;
#139 = CIRCLE ( 'NONE', #127, 0.3125000000000000000 ) ;
#140 = EDGE_CURVE ( 'NONE', #94, #93, #41, .T. ) ;
#141 = EDGE_CURVE ( 'NONE', #94, #95, #137, .T. ) ;
#142 = EDGE_CURVE ( 'NONE', #93, #92, #149, .T. ) ;
#143 = EDGE_CURVE ( 'NONE', #95, #92, #51, .T. ) ;
#144 = EDGE_CURVE ( 'NONE', #92, #93, #138, .T. ) ;
#145 = EDGE_CURVE ( 'NONE', #95, #94, #139, .T. ) ;
#146 = ADVANCED_FACE ( 'NONE', ( #2 ), #7, .T. ) ;
#147 = ADVANCED_FACE ( 'NONE', ( #27 ), #4, .T. ) ;
#148 = ADVANCED_FACE ( 'NONE', ( #28 ), #65, .F. ) ;
#149 = CIRCLE ( 'NONE', #3, 0.3125000000000000000 ) ;
ENDSEC;
END-ISO-10303-21;
