ISO-10303-21;
HEADER;
FILE_DESCRIPTION (( 'STEP AP214' ),
    '1' );
FILE_NAME ('R750F.step',
    '2012-04-20T21:06:22',
    ( '' ),
    ( '' ),
    'SwSTEP 2.0',
    'SolidWorks 2012',
    '' );
FILE_SCHEMA (( 'AUTOMOTIVE_DESIGN' ));
ENDSEC;

DATA;
#1 = FACE_OUTER_BOUND ( 'NONE', #42, .T. ) ;
#2 =( CONVERSION_BASED_UNIT ( 'INCH', #138 ) LENGTH_UNIT ( ) NAMED_UNIT ( #32 ) );
#3 = AXIS2_PLACEMENT_3D ( 'NONE', #78, #79, #80 ) ;
#4 = CYLINDRICAL_SURFACE ( 'NONE', #7, 0.3750000000000000600 ) ;
#5 = FACE_OUTER_BOUND ( 'NONE', #43, .T. ) ;
#6 = AXIS2_PLACEMENT_3D ( 'NONE', #87, #88, #89 ) ;
#7 = AXIS2_PLACEMENT_3D ( 'NONE', #81, #82, #83 ) ;
#8 = CYLINDRICAL_SURFACE ( 'NONE', #3, 0.3750000000000000600 ) ;
#9 = ORIENTED_EDGE ( 'NONE', *, *, #131, .T. ) ;
#10 = FILL_AREA_STYLE_COLOUR ( '', #48 ) ;
#11 = ORIENTED_EDGE ( 'NONE', *, *, #122, .T. ) ;
#12 = ORIENTED_EDGE ( 'NONE', *, *, #130, .F. ) ;
#13 = ORIENTED_EDGE ( 'NONE', *, *, #131, .F. ) ;
#14 = ORIENTED_EDGE ( 'NONE', *, *, #121, .F. ) ;
#15 = ORIENTED_EDGE ( 'NONE', *, *, #120, .T. ) ;
#16 = ORIENTED_EDGE ( 'NONE', *, *, #121, .T. ) ;
#17 = ORIENTED_EDGE ( 'NONE', *, *, #129, .T. ) ;
#18 = ORIENTED_EDGE ( 'NONE', *, *, #129, .F. ) ;
#19 = ORIENTED_EDGE ( 'NONE', *, *, #122, .F. ) ;
#20 = MANIFOLD_SOLID_BREP ( 'Boss-Extrude1', #134 ) ;
#21 = UNCERTAINTY_MEASURE_WITH_UNIT (LENGTH_MEASURE( 1.000000000000000100E-005 ), #98, 'distance_accuracy_value', 'NONE');
#22 = ADVANCED_BREP_SHAPE_REPRESENTATION ( 'R750F', ( #20, #57 ), #144 ) ;
#23 = UNCERTAINTY_MEASURE_WITH_UNIT (LENGTH_MEASURE( 1.000000000000000100E-005 ), #2, 'distance_accuracy_value', 'NONE');
#24 = UNCERTAINTY_MEASURE_WITH_UNIT (LENGTH_MEASURE( 1.000000000000000100E-005 ), #109, 'distance_accuracy_value', 'NONE');
#25 =( LENGTH_UNIT ( ) NAMED_UNIT ( * ) SI_UNIT ( $, .METRE. ) );
#26 = PRESENTATION_STYLE_ASSIGNMENT (( #27 ) ) ;
#27 = SURFACE_STYLE_USAGE ( .BOTH. , #28 ) ;
#28 = SURFACE_SIDE_STYLE ('',( #29 ) ) ;
#29 = SURFACE_STYLE_FILL_AREA ( #30 ) ;
#30 = FILL_AREA_STYLE ('',( #10 ) ) ;
#31 = FACE_OUTER_BOUND ( 'NONE', #45, .T. ) ;
#32 = DIMENSIONAL_EXPONENTS ( 1.000000000000000000, 0.0000000000000000000, 0.0000000000000000000, 0.0000000000000000000, 0.0000000000000000000, 0.0000000000000000000, 0.0000000000000000000 ) ;
#33 = DIMENSIONAL_EXPONENTS ( 1.000000000000000000, 0.0000000000000000000, 0.0000000000000000000, 0.0000000000000000000, 0.0000000000000000000, 0.0000000000000000000, 0.0000000000000000000 ) ;
#34 = DIMENSIONAL_EXPONENTS ( 1.000000000000000000, 0.0000000000000000000, 0.0000000000000000000, 0.0000000000000000000, 0.0000000000000000000, 0.0000000000000000000, 0.0000000000000000000 ) ;
#35 = PRODUCT ( 'R750F', 'R750F', '', ( #116 ) ) ;
#36 = ORIENTED_EDGE ( 'NONE', *, *, #120, .F. ) ;
#37 = ORIENTED_EDGE ( 'NONE', *, *, #130, .T. ) ;
#38 = VERTEX_POINT ( 'NONE', #61 ) ;
#39 = VERTEX_POINT ( 'NONE', #62 ) ;
#40 = VERTEX_POINT ( 'NONE', #63 ) ;
#41 = VERTEX_POINT ( 'NONE', #64 ) ;
#42 = EDGE_LOOP ( 'NONE', ( #13, #12, #15, #17 ) ) ;
#43 = EDGE_LOOP ( 'NONE', ( #19, #9, #16, #36 ) ) ;
#44 = EDGE_LOOP ( 'NONE', ( #37, #11 ) ) ;
#45 = EDGE_LOOP ( 'NONE', ( #18, #14 ) ) ;
#46 = AXIS2_PLACEMENT_3D ( 'NONE', #94, #95, #96 ) ;
#47 = CIRCLE ( 'NONE', #139, 0.3750000000000000600 ) ;
#48 = COLOUR_RGB ( '',0.5686274509803921400, 0.5686274509803921400, 0.5882352941176470800 ) ;
#49 = CIRCLE ( 'NONE', #6, 0.3750000000000000600 ) ;
#50 = COLOUR_RGB ( '',0.5686274509803921400, 0.5686274509803921400, 0.5882352941176470800 ) ;
#51 = PRODUCT_DEFINITION ( 'UNKNOWN', '', #58, #148 ) ;
#52 = LENGTH_MEASURE_WITH_UNIT ( LENGTH_MEASURE( 0.02539999999999999900 ), #97 );
#53 = STYLED_ITEM ( 'NONE', ( #107 ), #22 ) ;
#54 = PRESENTATION_LAYER_ASSIGNMENT (  '', '', ( #53 ) ) ;
#55 = MECHANICAL_DESIGN_GEOMETRIC_PRESENTATION_REPRESENTATION (  '', ( #53 ), #145 ) ;
#56 = LENGTH_MEASURE_WITH_UNIT ( LENGTH_MEASURE( 0.02539999999999999900 ), #108 );
#57 = AXIS2_PLACEMENT_3D ( 'NONE', #112, #113, #114 ) ;
#58 = PRODUCT_DEFINITION_FORMATION_WITH_SPECIFIED_SOURCE ( 'ANY', '', #35, .NOT_KNOWN. ) ;
#59 =( NAMED_UNIT ( * ) PLANE_ANGLE_UNIT ( ) SI_UNIT ( $, .RADIAN. ) );
#60 =( NAMED_UNIT ( * ) SI_UNIT ( $, .STERADIAN. ) SOLID_ANGLE_UNIT ( ) );
#61 = CARTESIAN_POINT ( 'NONE',  ( 4.592425496802573600E-017, 0.0000000000000000000, 0.3750000000000000600 ) ) ;
#62 = CARTESIAN_POINT ( 'NONE',  ( 4.592425496802573600E-017, 0.7500000000000001100, 0.3750000000000000600 ) ) ;
#63 = CARTESIAN_POINT ( 'NONE',  ( 0.0000000000000000000, 0.7500000000000001100, -0.3750000000000000600 ) ) ;
#64 = CARTESIAN_POINT ( 'NONE',  ( 0.0000000000000000000, 0.0000000000000000000, -0.3750000000000000600 ) ) ;
#65 = LINE ( 'NONE', #66, #140 ) ;
#66 = CARTESIAN_POINT ( 'NONE',  ( 0.0000000000000000000, 0.7500000000000001100, -0.3750000000000000600 ) ) ;
#67 = DIRECTION ( 'NONE',  ( -0.0000000000000000000, -1.000000000000000000, -0.0000000000000000000 ) ) ;
#68 = CARTESIAN_POINT ( 'NONE',  ( 0.0000000000000000000, 0.0000000000000000000, 0.0000000000000000000 ) ) ;
#69 = DIRECTION ( 'NONE',  ( 0.0000000000000000000, 1.000000000000000000, 0.0000000000000000000 ) ) ;
#70 = DIRECTION ( 'NONE',  ( 0.0000000000000000000, 0.0000000000000000000, 1.000000000000000000 ) ) ;
#71 = CARTESIAN_POINT ( 'NONE',  ( 0.0000000000000000000, 0.7500000000000001100, 0.0000000000000000000 ) ) ;
#72 = DIRECTION ( 'NONE',  ( 0.0000000000000000000, 1.000000000000000000, 0.0000000000000000000 ) ) ;
#73 = DIRECTION ( 'NONE',  ( 0.0000000000000000000, 0.0000000000000000000, 1.000000000000000000 ) ) ;
#74 = PLANE ( 'NONE',  #137 ) ;
#75 = CARTESIAN_POINT ( 'NONE',  ( 0.0000000000000000000, 0.7500000000000001100, 0.0000000000000000000 ) ) ;
#76 = DIRECTION ( 'NONE',  ( 0.0000000000000000000, 1.000000000000000000, 0.0000000000000000000 ) ) ;
#77 = DIRECTION ( 'NONE',  ( 0.0000000000000000000, -0.0000000000000000000, 1.000000000000000000 ) ) ;
#78 = CARTESIAN_POINT ( 'NONE',  ( 0.0000000000000000000, 0.7500000000000001100, 0.0000000000000000000 ) ) ;
#79 = DIRECTION ( 'NONE',  ( -0.0000000000000000000, -1.000000000000000000, -0.0000000000000000000 ) ) ;
#80 = DIRECTION ( 'NONE',  ( 0.0000000000000000000, 0.0000000000000000000, -1.000000000000000000 ) ) ;
#81 = CARTESIAN_POINT ( 'NONE',  ( 0.0000000000000000000, 0.7500000000000001100, 0.0000000000000000000 ) ) ;
#82 = DIRECTION ( 'NONE',  ( -0.0000000000000000000, -1.000000000000000000, -0.0000000000000000000 ) ) ;
#83 = DIRECTION ( 'NONE',  ( 0.0000000000000000000, 0.0000000000000000000, -1.000000000000000000 ) ) ;
#84 = CARTESIAN_POINT ( 'NONE',  ( 0.0000000000000000000, 0.0000000000000000000, 0.0000000000000000000 ) ) ;
#85 = DIRECTION ( 'NONE',  ( 0.0000000000000000000, 1.000000000000000000, 0.0000000000000000000 ) ) ;
#86 = DIRECTION ( 'NONE',  ( 0.0000000000000000000, 0.0000000000000000000, 1.000000000000000000 ) ) ;
#87 = CARTESIAN_POINT ( 'NONE',  ( 0.0000000000000000000, 0.7500000000000001100, 0.0000000000000000000 ) ) ;
#88 = DIRECTION ( 'NONE',  ( 0.0000000000000000000, 1.000000000000000000, 0.0000000000000000000 ) ) ;
#89 = DIRECTION ( 'NONE',  ( 0.0000000000000000000, 0.0000000000000000000, 1.000000000000000000 ) ) ;
#90 = PLANE ( 'NONE',  #46 ) ;
#91 = LINE ( 'NONE', #92, #147 ) ;
#92 = CARTESIAN_POINT ( 'NONE',  ( 4.592425496802573600E-017, 0.7500000000000001100, 0.3750000000000000600 ) ) ;
#93 = DIRECTION ( 'NONE',  ( -0.0000000000000000000, -1.000000000000000000, -0.0000000000000000000 ) ) ;
#94 = CARTESIAN_POINT ( 'NONE',  ( 0.0000000000000000000, 0.0000000000000000000, 0.0000000000000000000 ) ) ;
#95 = DIRECTION ( 'NONE',  ( 0.0000000000000000000, 1.000000000000000000, 0.0000000000000000000 ) ) ;
#96 = DIRECTION ( 'NONE',  ( 0.0000000000000000000, -0.0000000000000000000, 1.000000000000000000 ) ) ;
#97 =( LENGTH_UNIT ( ) NAMED_UNIT ( * ) SI_UNIT ( $, .METRE. ) );
#98 =( CONVERSION_BASED_UNIT ( 'INCH', #52 ) LENGTH_UNIT ( ) NAMED_UNIT ( #33 ) );
#99 =( NAMED_UNIT ( * ) PLANE_ANGLE_UNIT ( ) SI_UNIT ( $, .RADIAN. ) );
#100 =( NAMED_UNIT ( * ) SI_UNIT ( $, .STERADIAN. ) SOLID_ANGLE_UNIT ( ) );
#101 = APPLICATION_PROTOCOL_DEFINITION ( 'draft international standard', 'automotive_design', 1998, #119 ) ;
#102 = FILL_AREA_STYLE_COLOUR ( '', #50 ) ;
#103 = FILL_AREA_STYLE ('',( #102 ) ) ;
#104 = SURFACE_STYLE_FILL_AREA ( #103 ) ;
#105 = SURFACE_SIDE_STYLE ('',( #104 ) ) ;
#106 = SURFACE_STYLE_USAGE ( .BOTH. , #105 ) ;
#107 = PRESENTATION_STYLE_ASSIGNMENT (( #106 ) ) ;
#108 =( LENGTH_UNIT ( ) NAMED_UNIT ( * ) SI_UNIT ( $, .METRE. ) );
#109 =( CONVERSION_BASED_UNIT ( 'INCH', #56 ) LENGTH_UNIT ( ) NAMED_UNIT ( #34 ) );
#110 =( NAMED_UNIT ( * ) PLANE_ANGLE_UNIT ( ) SI_UNIT ( $, .RADIAN. ) );
#111 =( NAMED_UNIT ( * ) SI_UNIT ( $, .STERADIAN. ) SOLID_ANGLE_UNIT ( ) );
#112 = CARTESIAN_POINT ( 'NONE',  ( 0.0000000000000000000, 0.0000000000000000000, 0.0000000000000000000 ) ) ;
#113 = DIRECTION ( 'NONE',  ( 0.0000000000000000000, 0.0000000000000000000, 1.000000000000000000 ) ) ;
#114 = DIRECTION ( 'NONE',  ( 1.000000000000000000, 0.0000000000000000000, 0.0000000000000000000 ) ) ;
#115 = SHAPE_DEFINITION_REPRESENTATION ( #149, #22 ) ;
#116 = PRODUCT_CONTEXT ( 'NONE', #119, 'mechanical' ) ;
#117 = APPLICATION_PROTOCOL_DEFINITION ( 'draft international standard', 'automotive_design', 1998, #118 ) ;
#118 = APPLICATION_CONTEXT ( 'automotive_design' ) ;
#119 = APPLICATION_CONTEXT ( 'automotive_design' ) ;
#120 = EDGE_CURVE ( 'NONE', #40, #41, #65, .T. ) ;
#121 = EDGE_CURVE ( 'NONE', #38, #41, #124, .T. ) ;
#122 = EDGE_CURVE ( 'NONE', #39, #40, #125, .T. ) ;
#123 = PRODUCT_RELATED_PRODUCT_CATEGORY ( 'part', '', ( #35 ) ) ;
#124 = CIRCLE ( 'NONE', #142, 0.3750000000000000600 ) ;
#125 = CIRCLE ( 'NONE', #133, 0.3750000000000000600 ) ;
#126 = ADVANCED_FACE ( 'NONE', ( #135 ), #74, .T. ) ;
#127 = ADVANCED_FACE ( 'NONE', ( #1 ), #8, .T. ) ;
#128 = ADVANCED_FACE ( 'NONE', ( #5 ), #4, .T. ) ;
#129 = EDGE_CURVE ( 'NONE', #41, #38, #47, .T. ) ;
#130 = EDGE_CURVE ( 'NONE', #40, #39, #49, .T. ) ;
#131 = EDGE_CURVE ( 'NONE', #39, #38, #91, .T. ) ;
#132 = PRESENTATION_LAYER_ASSIGNMENT (  '', '', ( #136 ) ) ;
#133 = AXIS2_PLACEMENT_3D ( 'NONE', #71, #72, #73 ) ;
#134 = CLOSED_SHELL ( 'NONE', ( #128, #127, #126, #141 ) ) ;
#135 = FACE_OUTER_BOUND ( 'NONE', #44, .T. ) ;
#136 = STYLED_ITEM ( 'NONE', ( #26 ), #20 ) ;
#137 = AXIS2_PLACEMENT_3D ( 'NONE', #75, #76, #77 ) ;
#138 = LENGTH_MEASURE_WITH_UNIT ( LENGTH_MEASURE( 0.02539999999999999900 ), #25 );
#139 = AXIS2_PLACEMENT_3D ( 'NONE', #84, #85, #86 ) ;
#140 = VECTOR ( 'NONE', #67, 39.37007874015748100 ) ;
#141 = ADVANCED_FACE ( 'NONE', ( #31 ), #90, .F. ) ;
#142 = AXIS2_PLACEMENT_3D ( 'NONE', #68, #69, #70 ) ;
#143 = MECHANICAL_DESIGN_GEOMETRIC_PRESENTATION_REPRESENTATION (  '', ( #136 ), #146 ) ;
#144 =( GEOMETRIC_REPRESENTATION_CONTEXT ( 3 ) GLOBAL_UNCERTAINTY_ASSIGNED_CONTEXT ( ( #21 ) ) GLOBAL_UNIT_ASSIGNED_CONTEXT ( ( #98, #99, #100 ) ) REPRESENTATION_CONTEXT ( 'NONE', 'WORKASPACE' ) );
#145 =( GEOMETRIC_REPRESENTATION_CONTEXT ( 3 ) GLOBAL_UNCERTAINTY_ASSIGNED_CONTEXT ( ( #24 ) ) GLOBAL_UNIT_ASSIGNED_CONTEXT ( ( #109, #110, #111 ) ) REPRESENTATION_CONTEXT ( 'NONE', 'WORKASPACE' ) );
#146 =( GEOMETRIC_REPRESENTATION_CONTEXT ( 3 ) GLOBAL_UNCERTAINTY_ASSIGNED_CONTEXT ( ( #23 ) ) GLOBAL_UNIT_ASSIGNED_CONTEXT ( ( #2, #59, #60 ) ) REPRESENTATION_CONTEXT ( 'NONE', 'WORKASPACE' ) );
#147 = VECTOR ( 'NONE', #93, 39.37007874015748100 ) ;
#148 = PRODUCT_DEFINITION_CONTEXT ( 'detailed design', #118, 'design' ) ;
#149 = PRODUCT_DEFINITION_SHAPE ( 'NONE', 'NONE',  #51 ) ;
ENDSEC;
END-ISO-10303-21;
