ISO-10303-21;
HEADER;
FILE_DESCRIPTION (( 'STEP AP214' ),
    '1' );
FILE_NAME ('RD1000B.step',
    '2012-04-20T21:06:24',
    ( '' ),
    ( '' ),
    'SwSTEP 2.0',
    'SolidWorks 2012',
    '' );
FILE_SCHEMA (( 'AUTOMOTIVE_DESIGN' ));
ENDSEC;

DATA;
#1 = ORIENTED_EDGE ( 'NONE', *, *, #282, .F. ) ;
#2 = AXIS2_PLACEMENT_3D ( 'NONE', #138, #142, #143 ) ;
#3 = VECTOR ( 'NONE', #141, 39.37007874015748100 ) ;
#4 = AXIS2_PLACEMENT_3D ( 'NONE', #144, #145, #146 ) ;
#5 = VECTOR ( 'NONE', #150, 39.37007874015748100 ) ;
#6 = AXIS2_PLACEMENT_3D ( 'NONE', #147, #154, #155 ) ;
#7 = VECTOR ( 'NONE', #153, 39.37007874015748100 ) ;
#8 = CYLINDRICAL_SURFACE ( 'NONE', #6, 0.06250000000000001400 ) ;
#9 = AXIS2_PLACEMENT_3D ( 'NONE', #168, #169, #170 ) ;
#10 = AXIS2_PLACEMENT_3D ( 'NONE', #171, #172, #173 ) ;
#11 = VECTOR ( 'NONE', #158, 39.37007874015748100 ) ;
#12 = VECTOR ( 'NONE', #162, 39.37007874015748100 ) ;
#13 = AXIS2_PLACEMENT_3D ( 'NONE', #159, #166, #167 ) ;
#14 = VECTOR ( 'NONE', #165, 39.37007874015748100 ) ;
#15 = CYLINDRICAL_SURFACE ( 'NONE', #21, 0.06250000000000001400 ) ;
#16 = AXIS2_PLACEMENT_3D ( 'NONE', #180, #181, #182 ) ;
#17 = AXIS2_PLACEMENT_3D ( 'NONE', #174, #178, #179 ) ;
#18 = FACE_OUTER_BOUND ( 'NONE', #258, .T. ) ;
#19 = VECTOR ( 'NONE', #177, 39.37007874015748100 ) ;
#20 = FACE_OUTER_BOUND ( 'NONE', #263, .T. ) ;
#21 = AXIS2_PLACEMENT_3D ( 'NONE', #190, #191, #192 ) ;
#22 = AXIS2_PLACEMENT_3D ( 'NONE', #183, #184, #185 ) ;
#23 = FACE_BOUND ( 'NONE', #255, .T. ) ;
#24 = MECHANICAL_DESIGN_GEOMETRIC_PRESENTATION_REPRESENTATION (  '', ( #35 ), #251 ) ;
#25 = AXIS2_PLACEMENT_3D ( 'NONE', #243, #244, #245 ) ;
#26 = LENGTH_MEASURE_WITH_UNIT ( LENGTH_MEASURE( 0.02539999999999999900 ), #239 );
#27 = PRODUCT_DEFINITION_FORMATION_WITH_SPECIFIED_SOURCE ( 'ANY', '', #30, .NOT_KNOWN. ) ;
#28 = DIMENSIONAL_EXPONENTS ( 1.000000000000000000, 0.0000000000000000000, 0.0000000000000000000, 0.0000000000000000000, 0.0000000000000000000, 0.0000000000000000000, 0.0000000000000000000 ) ;
#29 = DIMENSIONAL_EXPONENTS ( 1.000000000000000000, 0.0000000000000000000, 0.0000000000000000000, 0.0000000000000000000, 0.0000000000000000000, 0.0000000000000000000, 0.0000000000000000000 ) ;
#30 = PRODUCT ( 'RD1000B', 'RD1000B', '', ( #247 ) ) ;
#31 = DIMENSIONAL_EXPONENTS ( 1.000000000000000000, 0.0000000000000000000, 0.0000000000000000000, 0.0000000000000000000, 0.0000000000000000000, 0.0000000000000000000, 0.0000000000000000000 ) ;
#32 = PRESENTATION_LAYER_ASSIGNMENT (  '', '', ( #36 ) ) ;
#33 = FACE_OUTER_BOUND ( 'NONE', #85, .T. ) ;
#34 = LENGTH_MEASURE_WITH_UNIT ( LENGTH_MEASURE( 0.02539999999999999900 ), #224 );
#35 = STYLED_ITEM ( 'NONE', ( #238 ), #42 ) ;
#36 = STYLED_ITEM ( 'NONE', ( #223 ), #357 ) ;
#37 = MECHANICAL_DESIGN_GEOMETRIC_PRESENTATION_REPRESENTATION (  '', ( #36 ), #250 ) ;
#38 = AXIS2_PLACEMENT_3D ( 'NONE', #212, #213, #214 ) ;
#39 = LENGTH_MEASURE_WITH_UNIT ( LENGTH_MEASURE( 0.02539999999999999900 ), #228 );
#40 = PRESENTATION_LAYER_ASSIGNMENT (  '', '', ( #35 ) ) ;
#41 = UNCERTAINTY_MEASURE_WITH_UNIT (LENGTH_MEASURE( 1.000000000000000100E-005 ), #240, 'distance_accuracy_value', 'NONE');
#42 = ADVANCED_BREP_SHAPE_REPRESENTATION ( 'RD1000B', ( #357, #25 ), #249 ) ;
#43 = UNCERTAINTY_MEASURE_WITH_UNIT (LENGTH_MEASURE( 1.000000000000000100E-005 ), #225, 'distance_accuracy_value', 'NONE');
#44 = UNCERTAINTY_MEASURE_WITH_UNIT (LENGTH_MEASURE( 1.000000000000000100E-005 ), #229, 'distance_accuracy_value', 'NONE');
#45 = ORIENTED_EDGE ( 'NONE', *, *, #272, .T. ) ;
#46 = ORIENTED_EDGE ( 'NONE', *, *, #279, .F. ) ;
#47 = ORIENTED_EDGE ( 'NONE', *, *, #292, .F. ) ;
#48 = ORIENTED_EDGE ( 'NONE', *, *, #284, .F. ) ;
#49 = ORIENTED_EDGE ( 'NONE', *, *, #293, .F. ) ;
#50 = ORIENTED_EDGE ( 'NONE', *, *, #281, .F. ) ;
#51 = ORIENTED_EDGE ( 'NONE', *, *, #272, .F. ) ;
#52 = ORIENTED_EDGE ( 'NONE', *, *, #279, .T. ) ;
#53 = ORIENTED_EDGE ( 'NONE', *, *, #290, .F. ) ;
#54 = APPLICATION_CONTEXT ( 'automotive_design' ) ;
#55 = APPLICATION_CONTEXT ( 'automotive_design' ) ;
#56 = ORIENTED_EDGE ( 'NONE', *, *, #289, .F. ) ;
#57 = ORIENTED_EDGE ( 'NONE', *, *, #291, .T. ) ;
#58 = ORIENTED_EDGE ( 'NONE', *, *, #273, .F. ) ;
#59 = ORIENTED_EDGE ( 'NONE', *, *, #287, .F. ) ;
#60 = ORIENTED_EDGE ( 'NONE', *, *, #294, .F. ) ;
#61 = ORIENTED_EDGE ( 'NONE', *, *, #276, .T. ) ;
#62 = ORIENTED_EDGE ( 'NONE', *, *, #277, .F. ) ;
#63 = ORIENTED_EDGE ( 'NONE', *, *, #283, .T. ) ;
#64 = ORIENTED_EDGE ( 'NONE', *, *, #295, .T. ) ;
#65 = ORIENTED_EDGE ( 'NONE', *, *, #274, .F. ) ;
#66 = ORIENTED_EDGE ( 'NONE', *, *, #275, .T. ) ;
#67 = ORIENTED_EDGE ( 'NONE', *, *, #293, .T. ) ;
#68 = ORIENTED_EDGE ( 'NONE', *, *, #275, .F. ) ;
#69 = ORIENTED_EDGE ( 'NONE', *, *, #283, .F. ) ;
#70 = ORIENTED_EDGE ( 'NONE', *, *, #280, .T. ) ;
#71 = ORIENTED_EDGE ( 'NONE', *, *, #276, .F. ) ;
#72 = ORIENTED_EDGE ( 'NONE', *, *, #291, .F. ) ;
#73 = ORIENTED_EDGE ( 'NONE', *, *, #273, .T. ) ;
#74 = ORIENTED_EDGE ( 'NONE', *, *, #288, .F. ) ;
#75 = ORIENTED_EDGE ( 'NONE', *, *, #281, .T. ) ;
#76 = ORIENTED_EDGE ( 'NONE', *, *, #278, .F. ) ;
#77 = ORIENTED_EDGE ( 'NONE', *, *, #289, .T. ) ;
#78 = ORIENTED_EDGE ( 'NONE', *, *, #282, .T. ) ;
#79 = ORIENTED_EDGE ( 'NONE', *, *, #274, .T. ) ;
#80 = ORIENTED_EDGE ( 'NONE', *, *, #278, .T. ) ;
#81 = ORIENTED_EDGE ( 'NONE', *, *, #284, .T. ) ;
#82 = ORIENTED_EDGE ( 'NONE', *, *, #294, .T. ) ;
#83 = ORIENTED_EDGE ( 'NONE', *, *, #295, .F. ) ;
#84 = ORIENTED_EDGE ( 'NONE', *, *, #280, .F. ) ;
#85 = EDGE_LOOP ( 'NONE', ( #49, #75, #63, #51 ) ) ;
#86 = VERTEX_POINT ( 'NONE', #100 ) ;
#87 = VERTEX_POINT ( 'NONE', #101 ) ;
#88 = VERTEX_POINT ( 'NONE', #102 ) ;
#89 = VERTEX_POINT ( 'NONE', #103 ) ;
#90 = VERTEX_POINT ( 'NONE', #104 ) ;
#91 = VERTEX_POINT ( 'NONE', #105 ) ;
#92 = VERTEX_POINT ( 'NONE', #106 ) ;
#93 = VERTEX_POINT ( 'NONE', #107 ) ;
#94 = VERTEX_POINT ( 'NONE', #108 ) ;
#95 = VERTEX_POINT ( 'NONE', #109 ) ;
#96 = VERTEX_POINT ( 'NONE', #110 ) ;
#97 = VERTEX_POINT ( 'NONE', #111 ) ;
#98 = VERTEX_POINT ( 'NONE', #112 ) ;
#99 = VERTEX_POINT ( 'NONE', #113 ) ;
#100 = CARTESIAN_POINT ( 'NONE',  ( -7.654042494670959100E-018, -0.5000000000000000000, 0.06250000000000001400 ) ) ;
#101 = CARTESIAN_POINT ( 'NONE',  ( 0.0000000000000000000, 0.3642937882565687200, 0.0000000000000000000 ) ) ;
#102 = CARTESIAN_POINT ( 'NONE',  ( 0.0000000000000000000, -0.5000000000000000000, -0.1249999999999999300 ) ) ;
#103 = CARTESIAN_POINT ( 'NONE',  ( 1.530808498934190900E-017, -0.5000000000000000000, 0.1249999999999999300 ) ) ;
#104 = CARTESIAN_POINT ( 'NONE',  ( 0.0000000000000000000, -0.5000000000000000000, -0.06250000000000001400 ) ) ;
#105 = CARTESIAN_POINT ( 'NONE',  ( 1.530808498934190900E-017, 0.5000000000000000000, 0.1249999999999999300 ) ) ;
#106 = CARTESIAN_POINT ( 'NONE',  ( 0.0000000000000000000, 0.5000000000000000000, -0.1249999999999999300 ) ) ;
#107 = CARTESIAN_POINT ( 'NONE',  ( 7.654042494670959100E-018, 0.3999999999999999700, -0.06250000000000001400 ) ) ;
#108 = CARTESIAN_POINT ( 'NONE',  ( 0.0000000000000000000, 0.3999999999999999700, 0.06250000000000001400 ) ) ;
#109 = CARTESIAN_POINT ( 'NONE',  ( 0.0000000000000000000, 0.5000000000000000000, -0.06250000000000001400 ) ) ;
#110 = CARTESIAN_POINT ( 'NONE',  ( 7.654042494670959100E-018, 0.5000000000000000000, 0.06250000000000001400 ) ) ;
#111 = CARTESIAN_POINT ( 'NONE',  ( -7.654042494670959100E-018, -0.3999999999999999700, -0.06250000000000001400 ) ) ;
#112 = CARTESIAN_POINT ( 'NONE',  ( 0.0000000000000000000, -0.3642937882565687200, 0.0000000000000000000 ) ) ;
#113 = CARTESIAN_POINT ( 'NONE',  ( 0.0000000000000000000, -0.3999999999999999700, 0.06250000000000001400 ) ) ;
#114 = CARTESIAN_POINT ( 'NONE',  ( 0.0000000000000000000, -0.3999999999999999700, 0.0000000000000000000 ) ) ;
#115 = DIRECTION ( 'NONE',  ( 0.0000000000000000000, -1.000000000000000000, 0.0000000000000000000 ) ) ;
#116 = DIRECTION ( 'NONE',  ( 0.0000000000000000000, 0.0000000000000000000, -1.000000000000000000 ) ) ;
#117 = CARTESIAN_POINT ( 'NONE',  ( 0.0000000000000000000, 0.3999999999999999700, 0.0000000000000000000 ) ) ;
#118 = DIRECTION ( 'NONE',  ( -0.0000000000000000000, -1.000000000000000000, -0.0000000000000000000 ) ) ;
#119 = DIRECTION ( 'NONE',  ( 0.0000000000000000000, 0.0000000000000000000, -1.000000000000000000 ) ) ;
#120 = CARTESIAN_POINT ( 'NONE',  ( 0.0000000000000000000, 0.5000000000000000000, 0.0000000000000000000 ) ) ;
#121 = DIRECTION ( 'NONE',  ( -0.0000000000000000000, -1.000000000000000000, -0.0000000000000000000 ) ) ;
#122 = DIRECTION ( 'NONE',  ( 0.0000000000000000000, 0.0000000000000000000, -1.000000000000000000 ) ) ;
#123 = CARTESIAN_POINT ( 'NONE',  ( 0.0000000000000000000, -0.3999999999999999700, 0.0000000000000000000 ) ) ;
#124 = LINE ( 'NONE', #125, #346 ) ;
#125 = CARTESIAN_POINT ( 'NONE',  ( 0.0000000000000000000, -0.3642937882565687200, 0.0000000000000000000 ) ) ;
#126 = DIRECTION ( 'NONE',  ( 0.0000000000000000000, -0.4960543778658744200, 0.8682914569429438500 ) ) ;
#127 = LINE ( 'NONE', #128, #354 ) ;
#128 = CARTESIAN_POINT ( 'NONE',  ( 7.654042494670959100E-018, 0.0000000000000000000, 0.06250000000000001400 ) ) ;
#129 = DIRECTION ( 'NONE',  ( -0.0000000000000000000, -1.000000000000000000, -0.0000000000000000000 ) ) ;
#130 = LINE ( 'NONE', #131, #348 ) ;
#131 = CARTESIAN_POINT ( 'NONE',  ( 0.0000000000000000000, 0.0000000000000000000, -0.06250000000000001400 ) ) ;
#132 = DIRECTION ( 'NONE',  ( -0.0000000000000000000, -1.000000000000000000, -0.0000000000000000000 ) ) ;
#133 = DIRECTION ( 'NONE',  ( 0.0000000000000000000, -1.000000000000000000, 0.0000000000000000000 ) ) ;
#134 = DIRECTION ( 'NONE',  ( 0.0000000000000000000, 0.0000000000000000000, -1.000000000000000000 ) ) ;
#135 = CARTESIAN_POINT ( 'NONE',  ( 0.0000000000000000000, 0.5000000000000000000, 0.0000000000000000000 ) ) ;
#136 = DIRECTION ( 'NONE',  ( -0.0000000000000000000, -1.000000000000000000, -0.0000000000000000000 ) ) ;
#137 = DIRECTION ( 'NONE',  ( 0.0000000000000000000, 0.0000000000000000000, -1.000000000000000000 ) ) ;
#138 = CARTESIAN_POINT ( 'NONE',  ( 0.0000000000000000000, -0.5000000000000000000, 0.0000000000000000000 ) ) ;
#139 = LINE ( 'NONE', #140, #3 ) ;
#140 = CARTESIAN_POINT ( 'NONE',  ( 0.0000000000000000000, 0.3642937882565687200, 0.0000000000000000000 ) ) ;
#141 = DIRECTION ( 'NONE',  ( 1.063350353472168200E-016, 0.4960543778658744200, -0.8682914569429438500 ) ) ;
#142 = DIRECTION ( 'NONE',  ( 0.0000000000000000000, -1.000000000000000000, 0.0000000000000000000 ) ) ;
#143 = DIRECTION ( 'NONE',  ( 0.0000000000000000000, 0.0000000000000000000, -1.000000000000000000 ) ) ;
#144 = CARTESIAN_POINT ( 'NONE',  ( 0.0000000000000000000, -0.5000000000000000000, 0.0000000000000000000 ) ) ;
#145 = DIRECTION ( 'NONE',  ( 0.0000000000000000000, -1.000000000000000000, 0.0000000000000000000 ) ) ;
#146 = DIRECTION ( 'NONE',  ( 0.0000000000000000000, 0.0000000000000000000, -1.000000000000000000 ) ) ;
#147 = CARTESIAN_POINT ( 'NONE',  ( 0.0000000000000000000, 0.0000000000000000000, 0.0000000000000000000 ) ) ;
#148 = LINE ( 'NONE', #149, #5 ) ;
#149 = CARTESIAN_POINT ( 'NONE',  ( 0.0000000000000000000, 0.0000000000000000000, -0.06250000000000001400 ) ) ;
#150 = DIRECTION ( 'NONE',  ( -0.0000000000000000000, 1.000000000000000000, -0.0000000000000000000 ) ) ;
#151 = LINE ( 'NONE', #152, #7 ) ;
#152 = CARTESIAN_POINT ( 'NONE',  ( 0.0000000000000000000, -0.3642937882565687200, 0.0000000000000000000 ) ) ;
#153 = DIRECTION ( 'NONE',  ( -1.063350353472168200E-016, -0.4960543778658744200, -0.8682914569429438500 ) ) ;
#154 = DIRECTION ( 'NONE',  ( -0.0000000000000000000, 1.000000000000000000, -0.0000000000000000000 ) ) ;
#155 = DIRECTION ( 'NONE',  ( 0.0000000000000000000, 0.0000000000000000000, -1.000000000000000000 ) ) ;
#156 = LINE ( 'NONE', #157, #11 ) ;
#157 = CARTESIAN_POINT ( 'NONE',  ( 1.530808498934191200E-017, 0.0000000000000000000, 0.1249999999999999600 ) ) ;
#158 = DIRECTION ( 'NONE',  ( -0.0000000000000000000, -1.000000000000000000, -0.0000000000000000000 ) ) ;
#159 = CARTESIAN_POINT ( 'NONE',  ( 0.0000000000000000000, -0.5000000000000000000, 0.0000000000000000000 ) ) ;
#160 = LINE ( 'NONE', #161, #12 ) ;
#161 = CARTESIAN_POINT ( 'NONE',  ( 0.0000000000000000000, 0.0000000000000000000, -0.1249999999999999600 ) ) ;
#162 = DIRECTION ( 'NONE',  ( -0.0000000000000000000, -1.000000000000000000, -0.0000000000000000000 ) ) ;
#163 = LINE ( 'NONE', #164, #14 ) ;
#164 = CARTESIAN_POINT ( 'NONE',  ( 0.0000000000000000000, 0.3642937882565687200, 0.0000000000000000000 ) ) ;
#165 = DIRECTION ( 'NONE',  ( 0.0000000000000000000, 0.4960543778658744200, 0.8682914569429438500 ) ) ;
#166 = DIRECTION ( 'NONE',  ( 0.0000000000000000000, -1.000000000000000000, 0.0000000000000000000 ) ) ;
#167 = DIRECTION ( 'NONE',  ( 0.0000000000000000000, 0.0000000000000000000, -1.000000000000000000 ) ) ;
#168 = CARTESIAN_POINT ( 'NONE',  ( 0.0000000000000000000, 0.5000000000000000000, 0.0000000000000000000 ) ) ;
#169 = DIRECTION ( 'NONE',  ( -0.0000000000000000000, -1.000000000000000000, -0.0000000000000000000 ) ) ;
#170 = DIRECTION ( 'NONE',  ( 0.0000000000000000000, 0.0000000000000000000, -1.000000000000000000 ) ) ;
#171 = CARTESIAN_POINT ( 'NONE',  ( 0.0000000000000000000, -0.5000000000000000000, 0.0000000000000000000 ) ) ;
#172 = DIRECTION ( 'NONE',  ( 0.0000000000000000000, -1.000000000000000000, 0.0000000000000000000 ) ) ;
#173 = DIRECTION ( 'NONE',  ( 0.0000000000000000000, 0.0000000000000000000, -1.000000000000000000 ) ) ;
#174 = CARTESIAN_POINT ( 'NONE',  ( 0.0000000000000000000, 0.3999999999999999700, 0.0000000000000000000 ) ) ;
#175 = LINE ( 'NONE', #176, #19 ) ;
#176 = CARTESIAN_POINT ( 'NONE',  ( -7.654042494670959100E-018, 0.0000000000000000000, 0.06250000000000001400 ) ) ;
#177 = DIRECTION ( 'NONE',  ( -0.0000000000000000000, 1.000000000000000000, -0.0000000000000000000 ) ) ;
#178 = DIRECTION ( 'NONE',  ( -0.0000000000000000000, -1.000000000000000000, -0.0000000000000000000 ) ) ;
#179 = DIRECTION ( 'NONE',  ( 0.0000000000000000000, 0.0000000000000000000, -1.000000000000000000 ) ) ;
#180 = CARTESIAN_POINT ( 'NONE',  ( 0.0000000000000000000, 0.5000000000000000000, 0.0000000000000000000 ) ) ;
#181 = DIRECTION ( 'NONE',  ( -0.0000000000000000000, -1.000000000000000000, -0.0000000000000000000 ) ) ;
#182 = DIRECTION ( 'NONE',  ( 0.0000000000000000000, 0.0000000000000000000, -1.000000000000000000 ) ) ;
#183 = CARTESIAN_POINT ( 'NONE',  ( 0.0000000000000000000, -39.73437252841404900, 0.0000000000000000000 ) ) ;
#184 = DIRECTION ( 'NONE',  ( 0.0000000000000000000, -1.000000000000000000, 0.0000000000000000000 ) ) ;
#185 = DIRECTION ( 'NONE',  ( 0.0000000000000000000, 0.0000000000000000000, 1.000000000000000000 ) ) ;
#186 = PLANE ( 'NONE',  #341 ) ;
#187 = CARTESIAN_POINT ( 'NONE',  ( 0.0000000000000000000, 0.5000000000000000000, 0.0000000000000000000 ) ) ;
#188 = DIRECTION ( 'NONE',  ( 0.0000000000000000000, -1.000000000000000000, -0.0000000000000000000 ) ) ;
#189 = DIRECTION ( 'NONE',  ( 0.0000000000000000000, 0.0000000000000000000, -1.000000000000000000 ) ) ;
#190 = CARTESIAN_POINT ( 'NONE',  ( 0.0000000000000000000, 0.0000000000000000000, 0.0000000000000000000 ) ) ;
#191 = DIRECTION ( 'NONE',  ( -0.0000000000000000000, -1.000000000000000000, -0.0000000000000000000 ) ) ;
#192 = DIRECTION ( 'NONE',  ( 0.0000000000000000000, 0.0000000000000000000, -1.000000000000000000 ) ) ;
#193 = CARTESIAN_POINT ( 'NONE',  ( 0.0000000000000000000, 0.0000000000000000000, 0.0000000000000000000 ) ) ;
#194 = DIRECTION ( 'NONE',  ( -0.0000000000000000000, -1.000000000000000000, -0.0000000000000000000 ) ) ;
#195 = DIRECTION ( 'NONE',  ( 0.0000000000000000000, 0.0000000000000000000, -1.000000000000000000 ) ) ;
#196 = CARTESIAN_POINT ( 'NONE',  ( 0.0000000000000000000, 39.73437252841404900, 0.0000000000000000000 ) ) ;
#197 = DIRECTION ( 'NONE',  ( 0.0000000000000000000, 1.000000000000000000, 0.0000000000000000000 ) ) ;
#198 = DIRECTION ( 'NONE',  ( 0.0000000000000000000, 0.0000000000000000000, 1.000000000000000000 ) ) ;
#199 = CARTESIAN_POINT ( 'NONE',  ( 0.0000000000000000000, 0.0000000000000000000, 0.0000000000000000000 ) ) ;
#200 = DIRECTION ( 'NONE',  ( -0.0000000000000000000, -1.000000000000000000, -0.0000000000000000000 ) ) ;
#201 = DIRECTION ( 'NONE',  ( 0.0000000000000000000, 0.0000000000000000000, -1.000000000000000000 ) ) ;
#202 = CARTESIAN_POINT ( 'NONE',  ( 0.0000000000000000000, 39.73437252841404900, 0.0000000000000000000 ) ) ;
#203 = DIRECTION ( 'NONE',  ( 0.0000000000000000000, 1.000000000000000000, 0.0000000000000000000 ) ) ;
#204 = DIRECTION ( 'NONE',  ( 0.0000000000000000000, 0.0000000000000000000, 1.000000000000000000 ) ) ;
#205 = CARTESIAN_POINT ( 'NONE',  ( 0.0000000000000000000, 0.0000000000000000000, 0.0000000000000000000 ) ) ;
#206 = DIRECTION ( 'NONE',  ( -0.0000000000000000000, -1.000000000000000000, -0.0000000000000000000 ) ) ;
#207 = DIRECTION ( 'NONE',  ( 0.0000000000000000000, 0.0000000000000000000, -1.000000000000000000 ) ) ;
#208 = CARTESIAN_POINT ( 'NONE',  ( 0.0000000000000000000, -39.73437252841404900, 0.0000000000000000000 ) ) ;
#209 = DIRECTION ( 'NONE',  ( 0.0000000000000000000, -1.000000000000000000, 0.0000000000000000000 ) ) ;
#210 = DIRECTION ( 'NONE',  ( 0.0000000000000000000, 0.0000000000000000000, 1.000000000000000000 ) ) ;
#211 = PLANE ( 'NONE',  #38 ) ;
#212 = CARTESIAN_POINT ( 'NONE',  ( 0.0000000000000000000, -0.5000000000000000000, 0.0000000000000000000 ) ) ;
#213 = DIRECTION ( 'NONE',  ( -0.0000000000000000000, 1.000000000000000000, 0.0000000000000000000 ) ) ;
#214 = DIRECTION ( 'NONE',  ( 0.0000000000000000000, 0.0000000000000000000, -1.000000000000000000 ) ) ;
#215 = CARTESIAN_POINT ( 'NONE',  ( 0.0000000000000000000, 0.0000000000000000000, 0.0000000000000000000 ) ) ;
#216 = DIRECTION ( 'NONE',  ( -0.0000000000000000000, 1.000000000000000000, -0.0000000000000000000 ) ) ;
#217 = DIRECTION ( 'NONE',  ( 0.0000000000000000000, 0.0000000000000000000, -1.000000000000000000 ) ) ;
#218 = FILL_AREA_STYLE_COLOUR ( '', #310 ) ;
#219 = FILL_AREA_STYLE ('',( #218 ) ) ;
#220 = SURFACE_STYLE_FILL_AREA ( #219 ) ;
#221 = SURFACE_SIDE_STYLE ('',( #220 ) ) ;
#222 = SURFACE_STYLE_USAGE ( .BOTH. , #221 ) ;
#223 = PRESENTATION_STYLE_ASSIGNMENT (( #222 ) ) ;
#224 =( LENGTH_UNIT ( ) NAMED_UNIT ( * ) SI_UNIT ( $, .METRE. ) );
#225 =( CONVERSION_BASED_UNIT ( 'INCH', #34 ) LENGTH_UNIT ( ) NAMED_UNIT ( #29 ) );
#226 =( NAMED_UNIT ( * ) PLANE_ANGLE_UNIT ( ) SI_UNIT ( $, .RADIAN. ) );
#227 =( NAMED_UNIT ( * ) SI_UNIT ( $, .STERADIAN. ) SOLID_ANGLE_UNIT ( ) );
#228 =( LENGTH_UNIT ( ) NAMED_UNIT ( * ) SI_UNIT ( $, .METRE. ) );
#229 =( CONVERSION_BASED_UNIT ( 'INCH', #39 ) LENGTH_UNIT ( ) NAMED_UNIT ( #31 ) );
#230 =( NAMED_UNIT ( * ) PLANE_ANGLE_UNIT ( ) SI_UNIT ( $, .RADIAN. ) );
#231 =( NAMED_UNIT ( * ) SI_UNIT ( $, .STERADIAN. ) SOLID_ANGLE_UNIT ( ) );
#232 = APPLICATION_PROTOCOL_DEFINITION ( 'draft international standard', 'automotive_design', 1998, #54 ) ;
#233 = FILL_AREA_STYLE_COLOUR ( '', #306 ) ;
#234 = FILL_AREA_STYLE ('',( #233 ) ) ;
#235 = SURFACE_STYLE_FILL_AREA ( #234 ) ;
#236 = SURFACE_SIDE_STYLE ('',( #235 ) ) ;
#237 = SURFACE_STYLE_USAGE ( .BOTH. , #236 ) ;
#238 = PRESENTATION_STYLE_ASSIGNMENT (( #237 ) ) ;
#239 =( LENGTH_UNIT ( ) NAMED_UNIT ( * ) SI_UNIT ( $, .METRE. ) );
#240 =( CONVERSION_BASED_UNIT ( 'INCH', #26 ) LENGTH_UNIT ( ) NAMED_UNIT ( #28 ) );
#241 =( NAMED_UNIT ( * ) PLANE_ANGLE_UNIT ( ) SI_UNIT ( $, .RADIAN. ) );
#242 =( NAMED_UNIT ( * ) SI_UNIT ( $, .STERADIAN. ) SOLID_ANGLE_UNIT ( ) );
#243 = CARTESIAN_POINT ( 'NONE',  ( 0.0000000000000000000, 0.0000000000000000000, 0.0000000000000000000 ) ) ;
#244 = DIRECTION ( 'NONE',  ( 0.0000000000000000000, 0.0000000000000000000, 1.000000000000000000 ) ) ;
#245 = DIRECTION ( 'NONE',  ( 1.000000000000000000, 0.0000000000000000000, 0.0000000000000000000 ) ) ;
#246 = SHAPE_DEFINITION_REPRESENTATION ( #355, #42 ) ;
#247 = PRODUCT_CONTEXT ( 'NONE', #54, 'mechanical' ) ;
#248 = APPLICATION_PROTOCOL_DEFINITION ( 'draft international standard', 'automotive_design', 1998, #55 ) ;
#249 =( GEOMETRIC_REPRESENTATION_CONTEXT ( 3 ) GLOBAL_UNCERTAINTY_ASSIGNED_CONTEXT ( ( #44 ) ) GLOBAL_UNIT_ASSIGNED_CONTEXT ( ( #229, #230, #231 ) ) REPRESENTATION_CONTEXT ( 'NONE', 'WORKASPACE' ) );
#250 =( GEOMETRIC_REPRESENTATION_CONTEXT ( 3 ) GLOBAL_UNCERTAINTY_ASSIGNED_CONTEXT ( ( #43 ) ) GLOBAL_UNIT_ASSIGNED_CONTEXT ( ( #225, #226, #227 ) ) REPRESENTATION_CONTEXT ( 'NONE', 'WORKASPACE' ) );
#251 =( GEOMETRIC_REPRESENTATION_CONTEXT ( 3 ) GLOBAL_UNCERTAINTY_ASSIGNED_CONTEXT ( ( #41 ) ) GLOBAL_UNIT_ASSIGNED_CONTEXT ( ( #240, #241, #242 ) ) REPRESENTATION_CONTEXT ( 'NONE', 'WORKASPACE' ) );
#252 = ORIENTED_EDGE ( 'NONE', *, *, #290, .T. ) ;
#253 = ORIENTED_EDGE ( 'NONE', *, *, #287, .T. ) ;
#254 = ORIENTED_EDGE ( 'NONE', *, *, #292, .T. ) ;
#255 = EDGE_LOOP ( 'NONE', ( #52, #64 ) ) ;
#256 = EDGE_LOOP ( 'NONE', ( #254, #67, #76, #69 ) ) ;
#257 = EDGE_LOOP ( 'NONE', ( #56, #70, #60 ) ) ;
#258 = EDGE_LOOP ( 'NONE', ( #68, #81, #80 ) ) ;
#259 = EDGE_LOOP ( 'NONE', ( #47, #50 ) ) ;
#260 = EDGE_LOOP ( 'NONE', ( #48, #66, #45 ) ) ;
#261 = EDGE_LOOP ( 'NONE', ( #83, #61, #82, #62 ) ) ;
#262 = EDGE_LOOP ( 'NONE', ( #71, #46, #270, #73 ) ) ;
#263 = EDGE_LOOP ( 'NONE', ( #65, #72 ) ) ;
#264 = EDGE_LOOP ( 'NONE', ( #84, #77, #58 ) ) ;
#265 = EDGE_LOOP ( 'NONE', ( #59, #57, #271, #53 ) ) ;
#266 = EDGE_LOOP ( 'NONE', ( #79, #253, #1, #74 ) ) ;
#267 = EDGE_LOOP ( 'NONE', ( #78, #252 ) ) ;
#268 = PRODUCT_DEFINITION ( 'UNKNOWN', '', #27, #356 ) ;
#269 = PRODUCT_RELATED_PRODUCT_CATEGORY ( 'part', '', ( #30 ) ) ;
#270 = ORIENTED_EDGE ( 'NONE', *, *, #277, .T. ) ;
#271 = ORIENTED_EDGE ( 'NONE', *, *, #288, .T. ) ;
#272 = EDGE_CURVE ( 'NONE', #99, #97, #317, .T. ) ;
#273 = EDGE_CURVE ( 'NONE', #93, #94, #316, .T. ) ;
#274 = EDGE_CURVE ( 'NONE', #92, #91, #313, .T. ) ;
#275 = EDGE_CURVE ( 'NONE', #98, #99, #124, .T. ) ;
#276 = EDGE_CURVE ( 'NONE', #96, #94, #127, .T. ) ;
#277 = EDGE_CURVE ( 'NONE', #95, #93, #130, .T. ) ;
#278 = EDGE_CURVE ( 'NONE', #97, #99, #314, .T. ) ;
#279 = EDGE_CURVE ( 'NONE', #95, #96, #315, .T. ) ;
#280 = EDGE_CURVE ( 'NONE', #87, #93, #139, .T. ) ;
#281 = EDGE_CURVE ( 'NONE', #86, #90, #318, .T. ) ;
#282 = EDGE_CURVE ( 'NONE', #88, #89, #319, .T. ) ;
#283 = EDGE_CURVE ( 'NONE', #90, #97, #148, .T. ) ;
#284 = EDGE_CURVE ( 'NONE', #98, #97, #151, .T. ) ;
#285 = CIRCLE ( 'NONE', #16, 0.06250000000000001400 ) ;
#286 = ADVANCED_FACE ( 'NONE', ( #349 ), #8, .F. ) ;
#287 = EDGE_CURVE ( 'NONE', #91, #89, #156, .T. ) ;
#288 = EDGE_CURVE ( 'NONE', #92, #88, #160, .T. ) ;
#289 = EDGE_CURVE ( 'NONE', #87, #94, #163, .T. ) ;
#290 = EDGE_CURVE ( 'NONE', #89, #88, #321, .T. ) ;
#291 = EDGE_CURVE ( 'NONE', #91, #92, #320, .T. ) ;
#292 = EDGE_CURVE ( 'NONE', #90, #86, #322, .T. ) ;
#293 = EDGE_CURVE ( 'NONE', #86, #99, #175, .T. ) ;
#294 = EDGE_CURVE ( 'NONE', #94, #93, #323, .T. ) ;
#295 = EDGE_CURVE ( 'NONE', #96, #95, #285, .T. ) ;
#296 = ADVANCED_FACE ( 'NONE', ( #18 ), #305, .F. ) ;
#297 = ADVANCED_FACE ( 'NONE', ( #20, #23 ), #186, .F. ) ;
#298 = ADVANCED_FACE ( 'NONE', ( #343 ), #15, .F. ) ;
#299 = ADVANCED_FACE ( 'NONE', ( #344 ), #334, .T. ) ;
#300 = ADVANCED_FACE ( 'NONE', ( #335 ), #307, .F. ) ;
#301 = ADVANCED_FACE ( 'NONE', ( #332 ), #340, .F. ) ;
#302 = ADVANCED_FACE ( 'NONE', ( #337 ), #308, .F. ) ;
#303 = ADVANCED_FACE ( 'NONE', ( #333 ), #325, .T. ) ;
#304 = ADVANCED_FACE ( 'NONE', ( #329 ), #309, .F. ) ;
#305 = CONICAL_SURFACE ( 'NONE', #22, 68.91321708785078200, 1.051747602477647800 ) ;
#306 = COLOUR_RGB ( '',0.5686274509803921400, 0.5686274509803921400, 0.5882352941176470800 ) ;
#307 = CONICAL_SURFACE ( 'NONE', #339, 68.91321708785078200, 1.051747602477647800 ) ;
#308 = CONICAL_SURFACE ( 'NONE', #328, 68.91321708785078200, 1.051747602477647800 ) ;
#309 = CONICAL_SURFACE ( 'NONE', #327, 68.91321708785078200, 1.051747602477647800 ) ;
#310 = COLOUR_RGB ( '',0.5686274509803921400, 0.5686274509803921400, 0.5882352941176470800 ) ;
#311 = ADVANCED_FACE ( 'NONE', ( #324, #342 ), #211, .F. ) ;
#312 = ADVANCED_FACE ( 'NONE', ( #33 ), #331, .F. ) ;
#313 = CIRCLE ( 'NONE', #347, 0.1249999999999999300 ) ;
#314 = CIRCLE ( 'NONE', #345, 0.06250000000000002800 ) ;
#315 = CIRCLE ( 'NONE', #352, 0.06250000000000001400 ) ;
#316 = CIRCLE ( 'NONE', #353, 0.06250000000000002800 ) ;
#317 = CIRCLE ( 'NONE', #350, 0.06250000000000002800 ) ;
#318 = CIRCLE ( 'NONE', #2, 0.06250000000000001400 ) ;
#319 = CIRCLE ( 'NONE', #4, 0.1249999999999999300 ) ;
#320 = CIRCLE ( 'NONE', #9, 0.1249999999999999300 ) ;
#321 = CIRCLE ( 'NONE', #13, 0.1249999999999999300 ) ;
#322 = CIRCLE ( 'NONE', #10, 0.06250000000000001400 ) ;
#323 = CIRCLE ( 'NONE', #17, 0.06250000000000002800 ) ;
#324 = FACE_OUTER_BOUND ( 'NONE', #267, .T. ) ;
#325 = CYLINDRICAL_SURFACE ( 'NONE', #330, 0.1249999999999999600 ) ;
#326 = AXIS2_PLACEMENT_3D ( 'NONE', #215, #216, #217 ) ;
#327 = AXIS2_PLACEMENT_3D ( 'NONE', #208, #209, #210 ) ;
#328 = AXIS2_PLACEMENT_3D ( 'NONE', #202, #203, #204 ) ;
#329 = FACE_OUTER_BOUND ( 'NONE', #260, .T. ) ;
#330 = AXIS2_PLACEMENT_3D ( 'NONE', #205, #206, #207 ) ;
#331 = CYLINDRICAL_SURFACE ( 'NONE', #326, 0.06250000000000001400 ) ;
#332 = FACE_OUTER_BOUND ( 'NONE', #261, .T. ) ;
#333 = FACE_OUTER_BOUND ( 'NONE', #266, .T. ) ;
#334 = CYLINDRICAL_SURFACE ( 'NONE', #336, 0.1249999999999999600 ) ;
#335 = FACE_OUTER_BOUND ( 'NONE', #264, .T. ) ;
#336 = AXIS2_PLACEMENT_3D ( 'NONE', #193, #194, #195 ) ;
#337 = FACE_OUTER_BOUND ( 'NONE', #257, .T. ) ;
#338 = AXIS2_PLACEMENT_3D ( 'NONE', #199, #200, #201 ) ;
#339 = AXIS2_PLACEMENT_3D ( 'NONE', #196, #197, #198 ) ;
#340 = CYLINDRICAL_SURFACE ( 'NONE', #338, 0.06250000000000001400 ) ;
#341 = AXIS2_PLACEMENT_3D ( 'NONE', #187, #188, #189 ) ;
#342 = FACE_BOUND ( 'NONE', #259, .T. ) ;
#343 = FACE_OUTER_BOUND ( 'NONE', #262, .T. ) ;
#344 = FACE_OUTER_BOUND ( 'NONE', #265, .T. ) ;
#345 = AXIS2_PLACEMENT_3D ( 'NONE', #123, #133, #134 ) ;
#346 = VECTOR ( 'NONE', #126, 39.37007874015748100 ) ;
#347 = AXIS2_PLACEMENT_3D ( 'NONE', #120, #121, #122 ) ;
#348 = VECTOR ( 'NONE', #132, 39.37007874015748100 ) ;
#349 = FACE_OUTER_BOUND ( 'NONE', #256, .T. ) ;
#350 = AXIS2_PLACEMENT_3D ( 'NONE', #114, #115, #116 ) ;
#351 = CLOSED_SHELL ( 'NONE', ( #286, #296, #301, #303, #302, #300, #299, #297, #298, #304, #311, #312 ) ) ;
#352 = AXIS2_PLACEMENT_3D ( 'NONE', #135, #136, #137 ) ;
#353 = AXIS2_PLACEMENT_3D ( 'NONE', #117, #118, #119 ) ;
#354 = VECTOR ( 'NONE', #129, 39.37007874015748100 ) ;
#355 = PRODUCT_DEFINITION_SHAPE ( 'NONE', 'NONE',  #268 ) ;
#356 = PRODUCT_DEFINITION_CONTEXT ( 'detailed design', #55, 'design' ) ;
#357 = MANIFOLD_SOLID_BREP ( 'Mirror1', #351 ) ;
ENDSEC;
END-ISO-10303-21;
