ISO-10303-21;
HEADER;
FILE_DESCRIPTION (( 'STEP AP214' ),
    '1' );
FILE_NAME ('RH250B-063.step',
    '2012-04-20T21:06:28',
    ( '' ),
    ( '' ),
    'SwSTEP 2.0',
    'SolidWorks 2012',
    '' );
FILE_SCHEMA (( 'AUTOMOTIVE_DESIGN' ));
ENDSEC;

DATA;
#1 = VERTEX_POINT ( 'NONE', #47 ) ;
#2 = AXIS2_PLACEMENT_3D ( 'NONE', #136, #137, #138 ) ;
#3 = LENGTH_MEASURE_WITH_UNIT ( LENGTH_MEASURE( 0.02539999999999999900 ), #132 );
#4 = MECHANICAL_DESIGN_GEOMETRIC_PRESENTATION_REPRESENTATION (  '', ( #6 ), #142 ) ;
#5 = PRESENTATION_LAYER_ASSIGNMENT (  '', '', ( #6 ) ) ;
#6 = STYLED_ITEM ( 'NONE', ( #131 ), #34 ) ;
#7 = FACE_BOUND ( 'NONE', #45, .T. ) ;
#8 = FACE_OUTER_BOUND ( 'NONE', #43, .T. ) ;
#9 = FACE_OUTER_BOUND ( 'NONE', #156, .T. ) ;
#10 = LENGTH_MEASURE_WITH_UNIT ( LENGTH_MEASURE( 0.02539999999999999900 ), #121 );
#11 = LENGTH_MEASURE_WITH_UNIT ( LENGTH_MEASURE( 0.02539999999999999900 ), #117 );
#12 = MECHANICAL_DESIGN_GEOMETRIC_PRESENTATION_REPRESENTATION (  '', ( #16 ), #144 ) ;
#13 = PRESENTATION_LAYER_ASSIGNMENT (  '', '', ( #16 ) ) ;
#14 = CYLINDRICAL_SURFACE ( 'NONE', #15, 0.03125000000000000000 ) ;
#15 = AXIS2_PLACEMENT_3D ( 'NONE', #108, #109, #110 ) ;
#16 = STYLED_ITEM ( 'NONE', ( #116 ), #213 ) ;
#17 = CYLINDRICAL_SURFACE ( 'NONE', #21, 0.1250000000000000000 ) ;
#18 = AXIS2_PLACEMENT_3D ( 'NONE', #102, #103, #104 ) ;
#19 = FACE_OUTER_BOUND ( 'NONE', #155, .T. ) ;
#20 = FACE_OUTER_BOUND ( 'NONE', #42, .T. ) ;
#21 = AXIS2_PLACEMENT_3D ( 'NONE', #105, #106, #107 ) ;
#22 = FACE_BOUND ( 'NONE', #154, .T. ) ;
#23 = AXIS2_PLACEMENT_3D ( 'NONE', #95, #96, #97 ) ;
#24 = VERTEX_POINT ( 'NONE', #48 ) ;
#25 = APPLICATION_CONTEXT ( 'automotive_design' ) ;
#26 = APPLICATION_CONTEXT ( 'automotive_design' ) ;
#27 = DIMENSIONAL_EXPONENTS ( 1.000000000000000000, 0.0000000000000000000, 0.0000000000000000000, 0.0000000000000000000, 0.0000000000000000000, 0.0000000000000000000, 0.0000000000000000000 ) ;
#28 = DIMENSIONAL_EXPONENTS ( 1.000000000000000000, 0.0000000000000000000, 0.0000000000000000000, 0.0000000000000000000, 0.0000000000000000000, 0.0000000000000000000, 0.0000000000000000000 ) ;
#29 = PRODUCT ( 'RH250B-063', 'RH250B-063', '', ( #140 ) ) ;
#30 = DIMENSIONAL_EXPONENTS ( 1.000000000000000000, 0.0000000000000000000, 0.0000000000000000000, 0.0000000000000000000, 0.0000000000000000000, 0.0000000000000000000, 0.0000000000000000000 ) ;
#31 = PRODUCT_DEFINITION_CONTEXT ( 'detailed design', #26, 'design' ) ;
#32 = PRODUCT_DEFINITION_SHAPE ( 'NONE', 'NONE',  #175 ) ;
#33 = UNCERTAINTY_MEASURE_WITH_UNIT (LENGTH_MEASURE( 1.000000000000000100E-005 ), #122, 'distance_accuracy_value', 'NONE');
#34 = ADVANCED_BREP_SHAPE_REPRESENTATION ( 'RH250B-063', ( #213, #2 ), #143 ) ;
#35 = UNCERTAINTY_MEASURE_WITH_UNIT (LENGTH_MEASURE( 1.000000000000000100E-005 ), #133, 'distance_accuracy_value', 'NONE');
#36 = UNCERTAINTY_MEASURE_WITH_UNIT (LENGTH_MEASURE( 1.000000000000000100E-005 ), #118, 'distance_accuracy_value', 'NONE');
#37 = VERTEX_POINT ( 'NONE', #49 ) ;
#38 = VERTEX_POINT ( 'NONE', #50 ) ;
#39 = VERTEX_POINT ( 'NONE', #51 ) ;
#40 = VERTEX_POINT ( 'NONE', #52 ) ;
#41 = VERTEX_POINT ( 'NONE', #53 ) ;
#42 = EDGE_LOOP ( 'NONE', ( #165, #161 ) ) ;
#43 = EDGE_LOOP ( 'NONE', ( #171, #157, #162, #146 ) ) ;
#44 = EDGE_LOOP ( 'NONE', ( #147, #148 ) ) ;
#45 = EDGE_LOOP ( 'NONE', ( #149, #151 ) ) ;
#46 = VERTEX_POINT ( 'NONE', #54 ) ;
#47 = CARTESIAN_POINT ( 'NONE',  ( -0.03124999999999999700, 0.0000000000000000000, 0.03125000000000000000 ) ) ;
#48 = CARTESIAN_POINT ( 'NONE',  ( -0.03125000000000000000, 0.2500000000000000600, -0.03125000000000000000 ) ) ;
#49 = CARTESIAN_POINT ( 'NONE',  ( -0.03125000000000000000, 0.0000000000000000000, -0.03125000000000000000 ) ) ;
#50 = CARTESIAN_POINT ( 'NONE',  ( -0.03125000000000000000, 0.2500000000000000600, -0.1250000000000000000 ) ) ;
#51 = CARTESIAN_POINT ( 'NONE',  ( -0.03124999999999998300, 0.2500000000000000600, 0.1250000000000000000 ) ) ;
#52 = CARTESIAN_POINT ( 'NONE',  ( -0.03124999999999998300, 0.0000000000000000000, 0.1250000000000000000 ) ) ;
#53 = CARTESIAN_POINT ( 'NONE',  ( -0.03125000000000000000, 0.0000000000000000000, -0.1250000000000000000 ) ) ;
#54 = CARTESIAN_POINT ( 'NONE',  ( -0.03124999999999999700, 0.2500000000000000600, 0.03125000000000000000 ) ) ;
#55 = CARTESIAN_POINT ( 'NONE',  ( -0.03125000000000000000, 0.2500000000000000600, 0.0000000000000000000 ) ) ;
#56 = DIRECTION ( 'NONE',  ( -0.0000000000000000000, -1.000000000000000000, -0.0000000000000000000 ) ) ;
#57 = DIRECTION ( 'NONE',  ( 0.0000000000000000000, 0.0000000000000000000, -1.000000000000000000 ) ) ;
#58 = CARTESIAN_POINT ( 'NONE',  ( -0.03125000000000000000, 0.2500000000000000600, 0.0000000000000000000 ) ) ;
#59 = DIRECTION ( 'NONE',  ( -0.0000000000000000000, -1.000000000000000000, -0.0000000000000000000 ) ) ;
#60 = DIRECTION ( 'NONE',  ( 0.0000000000000000000, 0.0000000000000000000, -1.000000000000000000 ) ) ;
#61 = CARTESIAN_POINT ( 'NONE',  ( -0.03125000000000000000, 0.0000000000000000000, 0.0000000000000000000 ) ) ;
#62 = DIRECTION ( 'NONE',  ( -0.0000000000000000000, -1.000000000000000000, -0.0000000000000000000 ) ) ;
#63 = DIRECTION ( 'NONE',  ( 0.0000000000000000000, 0.0000000000000000000, -1.000000000000000000 ) ) ;
#64 = CARTESIAN_POINT ( 'NONE',  ( -0.03125000000000000000, 0.0000000000000000000, 0.0000000000000000000 ) ) ;
#65 = DIRECTION ( 'NONE',  ( -0.0000000000000000000, -1.000000000000000000, -0.0000000000000000000 ) ) ;
#66 = DIRECTION ( 'NONE',  ( 0.0000000000000000000, 0.0000000000000000000, -1.000000000000000000 ) ) ;
#67 = CARTESIAN_POINT ( 'NONE',  ( -0.03125000000000000000, 0.0000000000000000000, 0.0000000000000000000 ) ) ;
#68 = LINE ( 'NONE', #69, #204 ) ;
#69 = CARTESIAN_POINT ( 'NONE',  ( -0.03125000000000000000, 0.0000000000000000000, -0.1250000000000000000 ) ) ;
#70 = DIRECTION ( 'NONE',  ( -0.0000000000000000000, -1.000000000000000000, -0.0000000000000000000 ) ) ;
#71 = DIRECTION ( 'NONE',  ( -0.0000000000000000000, -1.000000000000000000, -0.0000000000000000000 ) ) ;
#72 = DIRECTION ( 'NONE',  ( 0.0000000000000000000, 0.0000000000000000000, -1.000000000000000000 ) ) ;
#73 = CARTESIAN_POINT ( 'NONE',  ( -0.03125000000000000000, 0.2500000000000000600, 0.0000000000000000000 ) ) ;
#74 = DIRECTION ( 'NONE',  ( -0.0000000000000000000, -1.000000000000000000, -0.0000000000000000000 ) ) ;
#75 = DIRECTION ( 'NONE',  ( 0.0000000000000000000, 0.0000000000000000000, -1.000000000000000000 ) ) ;
#76 = CARTESIAN_POINT ( 'NONE',  ( -0.03125000000000000000, 0.0000000000000000000, 0.0000000000000000000 ) ) ;
#77 = LINE ( 'NONE', #78, #219 ) ;
#78 = CARTESIAN_POINT ( 'NONE',  ( -0.03124999999999998300, 0.0000000000000000000, 0.1250000000000000000 ) ) ;
#79 = DIRECTION ( 'NONE',  ( -0.0000000000000000000, -1.000000000000000000, -0.0000000000000000000 ) ) ;
#80 = LINE ( 'NONE', #81, #215 ) ;
#81 = CARTESIAN_POINT ( 'NONE',  ( -0.03125000000000000000, 0.0000000000000000000, -0.03125000000000000000 ) ) ;
#82 = DIRECTION ( 'NONE',  ( -0.0000000000000000000, -1.000000000000000000, -0.0000000000000000000 ) ) ;
#83 = DIRECTION ( 'NONE',  ( -0.0000000000000000000, -1.000000000000000000, -0.0000000000000000000 ) ) ;
#84 = DIRECTION ( 'NONE',  ( 0.0000000000000000000, 0.0000000000000000000, -1.000000000000000000 ) ) ;
#85 = CARTESIAN_POINT ( 'NONE',  ( -0.03125000000000000000, 0.2500000000000000600, 0.0000000000000000000 ) ) ;
#86 = DIRECTION ( 'NONE',  ( -0.0000000000000000000, -1.000000000000000000, -0.0000000000000000000 ) ) ;
#87 = DIRECTION ( 'NONE',  ( 0.0000000000000000000, 0.0000000000000000000, -1.000000000000000000 ) ) ;
#88 = CARTESIAN_POINT ( 'NONE',  ( -0.03125000000000000000, 0.0000000000000000000, 0.0000000000000000000 ) ) ;
#89 = LINE ( 'NONE', #90, #222 ) ;
#90 = CARTESIAN_POINT ( 'NONE',  ( -0.03124999999999999700, 0.0000000000000000000, 0.03125000000000000000 ) ) ;
#91 = DIRECTION ( 'NONE',  ( -0.0000000000000000000, -1.000000000000000000, -0.0000000000000000000 ) ) ;
#92 = DIRECTION ( 'NONE',  ( -0.0000000000000000000, -1.000000000000000000, -0.0000000000000000000 ) ) ;
#93 = DIRECTION ( 'NONE',  ( 0.0000000000000000000, 0.0000000000000000000, -1.000000000000000000 ) ) ;
#94 = PLANE ( 'NONE',  #23 ) ;
#95 = CARTESIAN_POINT ( 'NONE',  ( 0.0000000000000000000, 0.2500000000000000600, 0.0000000000000000000 ) ) ;
#96 = DIRECTION ( 'NONE',  ( 0.0000000000000000000, -1.000000000000000000, -0.0000000000000000000 ) ) ;
#97 = DIRECTION ( 'NONE',  ( 0.0000000000000000000, 0.0000000000000000000, -1.000000000000000000 ) ) ;
#98 = CARTESIAN_POINT ( 'NONE',  ( -0.03125000000000000000, 0.0000000000000000000, 0.0000000000000000000 ) ) ;
#99 = DIRECTION ( 'NONE',  ( -0.0000000000000000000, -1.000000000000000000, -0.0000000000000000000 ) ) ;
#100 = DIRECTION ( 'NONE',  ( 0.0000000000000000000, 0.0000000000000000000, -1.000000000000000000 ) ) ;
#101 = PLANE ( 'NONE',  #18 ) ;
#102 = CARTESIAN_POINT ( 'NONE',  ( 0.0000000000000000000, 0.0000000000000000000, 0.0000000000000000000 ) ) ;
#103 = DIRECTION ( 'NONE',  ( 0.0000000000000000000, 1.000000000000000000, 0.0000000000000000000 ) ) ;
#104 = DIRECTION ( 'NONE',  ( 0.0000000000000000000, -0.0000000000000000000, 1.000000000000000000 ) ) ;
#105 = CARTESIAN_POINT ( 'NONE',  ( -0.03125000000000000000, 0.0000000000000000000, 0.0000000000000000000 ) ) ;
#106 = DIRECTION ( 'NONE',  ( -0.0000000000000000000, -1.000000000000000000, -0.0000000000000000000 ) ) ;
#107 = DIRECTION ( 'NONE',  ( 0.0000000000000000000, 0.0000000000000000000, -1.000000000000000000 ) ) ;
#108 = CARTESIAN_POINT ( 'NONE',  ( -0.03125000000000000000, 0.0000000000000000000, 0.0000000000000000000 ) ) ;
#109 = DIRECTION ( 'NONE',  ( -0.0000000000000000000, -1.000000000000000000, -0.0000000000000000000 ) ) ;
#110 = DIRECTION ( 'NONE',  ( 0.0000000000000000000, 0.0000000000000000000, -1.000000000000000000 ) ) ;
#111 = FILL_AREA_STYLE_COLOUR ( '', #173 ) ;
#112 = FILL_AREA_STYLE ('',( #111 ) ) ;
#113 = SURFACE_STYLE_FILL_AREA ( #112 ) ;
#114 = SURFACE_SIDE_STYLE ('',( #113 ) ) ;
#115 = SURFACE_STYLE_USAGE ( .BOTH. , #114 ) ;
#116 = PRESENTATION_STYLE_ASSIGNMENT (( #115 ) ) ;
#117 =( LENGTH_UNIT ( ) NAMED_UNIT ( * ) SI_UNIT ( $, .METRE. ) );
#118 =( CONVERSION_BASED_UNIT ( 'INCH', #11 ) LENGTH_UNIT ( ) NAMED_UNIT ( #27 ) );
#119 =( NAMED_UNIT ( * ) PLANE_ANGLE_UNIT ( ) SI_UNIT ( $, .RADIAN. ) );
#120 =( NAMED_UNIT ( * ) SI_UNIT ( $, .STERADIAN. ) SOLID_ANGLE_UNIT ( ) );
#121 =( LENGTH_UNIT ( ) NAMED_UNIT ( * ) SI_UNIT ( $, .METRE. ) );
#122 =( CONVERSION_BASED_UNIT ( 'INCH', #10 ) LENGTH_UNIT ( ) NAMED_UNIT ( #28 ) );
#123 =( NAMED_UNIT ( * ) PLANE_ANGLE_UNIT ( ) SI_UNIT ( $, .RADIAN. ) );
#124 =( NAMED_UNIT ( * ) SI_UNIT ( $, .STERADIAN. ) SOLID_ANGLE_UNIT ( ) );
#125 = APPLICATION_PROTOCOL_DEFINITION ( 'draft international standard', 'automotive_design', 1998, #25 ) ;
#126 = FILL_AREA_STYLE_COLOUR ( '', #174 ) ;
#127 = FILL_AREA_STYLE ('',( #126 ) ) ;
#128 = SURFACE_STYLE_FILL_AREA ( #127 ) ;
#129 = SURFACE_SIDE_STYLE ('',( #128 ) ) ;
#130 = SURFACE_STYLE_USAGE ( .BOTH. , #129 ) ;
#131 = PRESENTATION_STYLE_ASSIGNMENT (( #130 ) ) ;
#132 =( LENGTH_UNIT ( ) NAMED_UNIT ( * ) SI_UNIT ( $, .METRE. ) );
#133 =( CONVERSION_BASED_UNIT ( 'INCH', #3 ) LENGTH_UNIT ( ) NAMED_UNIT ( #30 ) );
#134 =( NAMED_UNIT ( * ) PLANE_ANGLE_UNIT ( ) SI_UNIT ( $, .RADIAN. ) );
#135 =( NAMED_UNIT ( * ) SI_UNIT ( $, .STERADIAN. ) SOLID_ANGLE_UNIT ( ) );
#136 = CARTESIAN_POINT ( 'NONE',  ( 0.0000000000000000000, 0.0000000000000000000, 0.0000000000000000000 ) ) ;
#137 = DIRECTION ( 'NONE',  ( 0.0000000000000000000, 0.0000000000000000000, 1.000000000000000000 ) ) ;
#138 = DIRECTION ( 'NONE',  ( 1.000000000000000000, 0.0000000000000000000, 0.0000000000000000000 ) ) ;
#139 = SHAPE_DEFINITION_REPRESENTATION ( #32, #34 ) ;
#140 = PRODUCT_CONTEXT ( 'NONE', #25, 'mechanical' ) ;
#141 = APPLICATION_PROTOCOL_DEFINITION ( 'draft international standard', 'automotive_design', 1998, #26 ) ;
#142 =( GEOMETRIC_REPRESENTATION_CONTEXT ( 3 ) GLOBAL_UNCERTAINTY_ASSIGNED_CONTEXT ( ( #35 ) ) GLOBAL_UNIT_ASSIGNED_CONTEXT ( ( #133, #134, #135 ) ) REPRESENTATION_CONTEXT ( 'NONE', 'WORKASPACE' ) );
#143 =( GEOMETRIC_REPRESENTATION_CONTEXT ( 3 ) GLOBAL_UNCERTAINTY_ASSIGNED_CONTEXT ( ( #33 ) ) GLOBAL_UNIT_ASSIGNED_CONTEXT ( ( #122, #123, #124 ) ) REPRESENTATION_CONTEXT ( 'NONE', 'WORKASPACE' ) );
#144 =( GEOMETRIC_REPRESENTATION_CONTEXT ( 3 ) GLOBAL_UNCERTAINTY_ASSIGNED_CONTEXT ( ( #36 ) ) GLOBAL_UNIT_ASSIGNED_CONTEXT ( ( #118, #119, #120 ) ) REPRESENTATION_CONTEXT ( 'NONE', 'WORKASPACE' ) );
#145 = ORIENTED_EDGE ( 'NONE', *, *, #188, .F. ) ;
#146 = ORIENTED_EDGE ( 'NONE', *, *, #179, .F. ) ;
#147 = ORIENTED_EDGE ( 'NONE', *, *, #183, .F. ) ;
#148 = ORIENTED_EDGE ( 'NONE', *, *, #178, .F. ) ;
#149 = ORIENTED_EDGE ( 'NONE', *, *, #177, .T. ) ;
#150 = ORIENTED_EDGE ( 'NONE', *, *, #180, .T. ) ;
#151 = ORIENTED_EDGE ( 'NONE', *, *, #187, .T. ) ;
#152 = ORIENTED_EDGE ( 'NONE', *, *, #177, .F. ) ;
#153 = ORIENTED_EDGE ( 'NONE', *, *, #185, .T. ) ;
#154 = EDGE_LOOP ( 'NONE', ( #163, #172 ) ) ;
#155 = EDGE_LOOP ( 'NONE', ( #166, #167, #168, #158 ) ) ;
#156 = EDGE_LOOP ( 'NONE', ( #169, #170, #160, #164 ) ) ;
#157 = ORIENTED_EDGE ( 'NONE', *, *, #178, .T. ) ;
#158 = ORIENTED_EDGE ( 'NONE', *, *, #181, .F. ) ;
#159 = EDGE_LOOP ( 'NONE', ( #145, #152, #153, #150 ) ) ;
#160 = ORIENTED_EDGE ( 'NONE', *, *, #186, .T. ) ;
#161 = ORIENTED_EDGE ( 'NONE', *, *, #179, .T. ) ;
#162 = ORIENTED_EDGE ( 'NONE', *, *, #181, .T. ) ;
#163 = ORIENTED_EDGE ( 'NONE', *, *, #180, .F. ) ;
#164 = ORIENTED_EDGE ( 'NONE', *, *, #185, .F. ) ;
#165 = ORIENTED_EDGE ( 'NONE', *, *, #182, .T. ) ;
#166 = ORIENTED_EDGE ( 'NONE', *, *, #183, .T. ) ;
#167 = ORIENTED_EDGE ( 'NONE', *, *, #184, .T. ) ;
#168 = ORIENTED_EDGE ( 'NONE', *, *, #182, .F. ) ;
#169 = ORIENTED_EDGE ( 'NONE', *, *, #187, .F. ) ;
#170 = ORIENTED_EDGE ( 'NONE', *, *, #188, .T. ) ;
#171 = ORIENTED_EDGE ( 'NONE', *, *, #184, .F. ) ;
#172 = ORIENTED_EDGE ( 'NONE', *, *, #186, .F. ) ;
#173 = COLOUR_RGB ( '',0.5686274509803921400, 0.5686274509803921400, 0.5882352941176470800 ) ;
#174 = COLOUR_RGB ( '',0.5686274509803921400, 0.5686274509803921400, 0.5882352941176470800 ) ;
#175 = PRODUCT_DEFINITION ( 'UNKNOWN', '', #203, #31 ) ;
#176 = PRODUCT_RELATED_PRODUCT_CATEGORY ( 'part', '', ( #29 ) ) ;
#177 = EDGE_CURVE ( 'NONE', #24, #46, #197, .T. ) ;
#178 = EDGE_CURVE ( 'NONE', #39, #38, #196, .T. ) ;
#179 = EDGE_CURVE ( 'NONE', #40, #41, #195, .T. ) ;
#180 = EDGE_CURVE ( 'NONE', #37, #1, #198, .T. ) ;
#181 = EDGE_CURVE ( 'NONE', #38, #41, #68, .T. ) ;
#182 = EDGE_CURVE ( 'NONE', #41, #40, #199, .T. ) ;
#183 = EDGE_CURVE ( 'NONE', #38, #39, #200, .T. ) ;
#184 = EDGE_CURVE ( 'NONE', #39, #40, #77, .T. ) ;
#185 = EDGE_CURVE ( 'NONE', #24, #37, #80, .T. ) ;
#186 = EDGE_CURVE ( 'NONE', #1, #37, #201, .T. ) ;
#187 = EDGE_CURVE ( 'NONE', #46, #24, #202, .T. ) ;
#188 = EDGE_CURVE ( 'NONE', #46, #1, #89, .T. ) ;
#189 = ADVANCED_FACE ( 'NONE', ( #214 ), #220, .F. ) ;
#190 = ADVANCED_FACE ( 'NONE', ( #217, #7 ), #94, .F. ) ;
#191 = ADVANCED_FACE ( 'NONE', ( #8 ), #218, .T. ) ;
#192 = ADVANCED_FACE ( 'NONE', ( #22, #20 ), #101, .F. ) ;
#193 = ADVANCED_FACE ( 'NONE', ( #19 ), #17, .T. ) ;
#194 = ADVANCED_FACE ( 'NONE', ( #9 ), #14, .F. ) ;
#195 = CIRCLE ( 'NONE', #208, 0.1250000000000000000 ) ;
#196 = CIRCLE ( 'NONE', #206, 0.1250000000000000000 ) ;
#197 = CIRCLE ( 'NONE', #210, 0.03125000000000000000 ) ;
#198 = CIRCLE ( 'NONE', #209, 0.03125000000000000000 ) ;
#199 = CIRCLE ( 'NONE', #211, 0.1250000000000000000 ) ;
#200 = CIRCLE ( 'NONE', #207, 0.1250000000000000000 ) ;
#201 = CIRCLE ( 'NONE', #212, 0.03125000000000000000 ) ;
#202 = CIRCLE ( 'NONE', #221, 0.03125000000000000000 ) ;
#203 = PRODUCT_DEFINITION_FORMATION_WITH_SPECIFIED_SOURCE ( 'ANY', '', #29, .NOT_KNOWN. ) ;
#204 = VECTOR ( 'NONE', #70, 39.37007874015748100 ) ;
#205 = CLOSED_SHELL ( 'NONE', ( #194, #193, #192, #191, #190, #189 ) ) ;
#206 = AXIS2_PLACEMENT_3D ( 'NONE', #58, #59, #60 ) ;
#207 = AXIS2_PLACEMENT_3D ( 'NONE', #73, #74, #75 ) ;
#208 = AXIS2_PLACEMENT_3D ( 'NONE', #61, #62, #63 ) ;
#209 = AXIS2_PLACEMENT_3D ( 'NONE', #64, #65, #66 ) ;
#210 = AXIS2_PLACEMENT_3D ( 'NONE', #55, #56, #57 ) ;
#211 = AXIS2_PLACEMENT_3D ( 'NONE', #67, #71, #72 ) ;
#212 = AXIS2_PLACEMENT_3D ( 'NONE', #76, #83, #84 ) ;
#213 = MANIFOLD_SOLID_BREP ( 'Revolve1', #205 ) ;
#214 = FACE_OUTER_BOUND ( 'NONE', #159, .T. ) ;
#215 = VECTOR ( 'NONE', #82, 39.37007874015748100 ) ;
#216 = AXIS2_PLACEMENT_3D ( 'NONE', #98, #99, #100 ) ;
#217 = FACE_OUTER_BOUND ( 'NONE', #44, .T. ) ;
#218 = CYLINDRICAL_SURFACE ( 'NONE', #216, 0.1250000000000000000 ) ;
#219 = VECTOR ( 'NONE', #79, 39.37007874015748100 ) ;
#220 = CYLINDRICAL_SURFACE ( 'NONE', #223, 0.03125000000000000000 ) ;
#221 = AXIS2_PLACEMENT_3D ( 'NONE', #85, #86, #87 ) ;
#222 = VECTOR ( 'NONE', #91, 39.37007874015748100 ) ;
#223 = AXIS2_PLACEMENT_3D ( 'NONE', #88, #92, #93 ) ;
ENDSEC;
END-ISO-10303-21;
