ISO-10303-21;
HEADER;
FILE_DESCRIPTION (( 'STEP AP214' ),
    '1' );
FILE_NAME ('S375C.step',
    '2012-04-20T21:06:55',
    ( '' ),
    ( '' ),
    'SwSTEP 2.0',
    'SolidWorks 2012',
    '' );
FILE_SCHEMA (( 'AUTOMOTIVE_DESIGN' ));
ENDSEC;

DATA;
#1 =( NAMED_UNIT ( * ) SI_UNIT ( $, .STERADIAN. ) SOLID_ANGLE_UNIT ( ) );
#2 = EDGE_LOOP ( 'NONE', ( #89, #87 ) ) ;
#3 = CARTESIAN_POINT ( 'NONE',  ( 0.0000000000000000000, 0.0000000000000000000, 0.0000000000000000000 ) ) ;
#4 = DIRECTION ( 'NONE',  ( -0.0000000000000000000, -0.0000000000000000000, -1.000000000000000000 ) ) ;
#5 = DIRECTION ( 'NONE',  ( -1.000000000000000000, 0.0000000000000000000, 0.0000000000000000000 ) ) ;
#6 = FILL_AREA_STYLE_COLOUR ( '', #107 ) ;
#7 = FILL_AREA_STYLE ('',( #6 ) ) ;
#8 = SURFACE_STYLE_FILL_AREA ( #7 ) ;
#9 = SURFACE_SIDE_STYLE ('',( #8 ) ) ;
#10 = SURFACE_STYLE_USAGE ( .BOTH. , #9 ) ;
#11 = PRESENTATION_STYLE_ASSIGNMENT (( #10 ) ) ;
#12 =( LENGTH_UNIT ( ) NAMED_UNIT ( * ) SI_UNIT ( $, .METRE. ) );
#13 =( CONVERSION_BASED_UNIT ( 'INCH', #112 ) LENGTH_UNIT ( ) NAMED_UNIT ( #78 ) );
#14 =( NAMED_UNIT ( * ) PLANE_ANGLE_UNIT ( ) SI_UNIT ( $, .RADIAN. ) );
#15 =( NAMED_UNIT ( * ) SI_UNIT ( $, .STERADIAN. ) SOLID_ANGLE_UNIT ( ) );
#16 = CARTESIAN_POINT ( 'NONE',  ( 0.0000000000000000000, 0.0000000000000000000, 0.0000000000000000000 ) ) ;
#17 = DIRECTION ( 'NONE',  ( -0.0000000000000000000, -0.0000000000000000000, -1.000000000000000000 ) ) ;
#18 = DIRECTION ( 'NONE',  ( -1.000000000000000000, 0.0000000000000000000, 0.0000000000000000000 ) ) ;
#19 = CARTESIAN_POINT ( 'NONE',  ( 0.0000000000000000000, 0.0000000000000000000, 0.0000000000000000000 ) ) ;
#20 = DIRECTION ( 'NONE',  ( -1.224646799147353200E-016, 0.0000000000000000000, -1.000000000000000000 ) ) ;
#21 = DIRECTION ( 'NONE',  ( -1.000000000000000000, 0.0000000000000000000, 1.224646799147353200E-016 ) ) ;
#22 = CARTESIAN_POINT ( 'NONE',  ( 0.0000000000000000000, 0.0000000000000000000, 0.0000000000000000000 ) ) ;
#23 = DIRECTION ( 'NONE',  ( -0.0000000000000000000, 0.0000000000000000000, 1.000000000000000000 ) ) ;
#24 = DIRECTION ( 'NONE',  ( 1.000000000000000000, 0.0000000000000000000, 0.0000000000000000000 ) ) ;
#25 = FILL_AREA_STYLE_COLOUR ( '', #109 ) ;
#26 = FILL_AREA_STYLE ('',( #25 ) ) ;
#27 = SURFACE_STYLE_FILL_AREA ( #26 ) ;
#28 = SURFACE_SIDE_STYLE ('',( #27 ) ) ;
#29 = SURFACE_STYLE_USAGE ( .BOTH. , #28 ) ;
#30 = PRESENTATION_STYLE_ASSIGNMENT (( #29 ) ) ;
#31 =( LENGTH_UNIT ( ) NAMED_UNIT ( * ) SI_UNIT ( $, .METRE. ) );
#32 =( CONVERSION_BASED_UNIT ( 'INCH', #116 ) LENGTH_UNIT ( ) NAMED_UNIT ( #76 ) );
#33 =( NAMED_UNIT ( * ) PLANE_ANGLE_UNIT ( ) SI_UNIT ( $, .RADIAN. ) );
#34 =( NAMED_UNIT ( * ) SI_UNIT ( $, .STERADIAN. ) SOLID_ANGLE_UNIT ( ) );
#35 =( LENGTH_UNIT ( ) NAMED_UNIT ( * ) SI_UNIT ( $, .METRE. ) );
#36 =( CONVERSION_BASED_UNIT ( 'INCH', #62 ) LENGTH_UNIT ( ) NAMED_UNIT ( #77 ) );
#37 =( NAMED_UNIT ( * ) PLANE_ANGLE_UNIT ( ) SI_UNIT ( $, .RADIAN. ) );
#38 =( NAMED_UNIT ( * ) SI_UNIT ( $, .STERADIAN. ) SOLID_ANGLE_UNIT ( ) );
#39 = APPLICATION_PROTOCOL_DEFINITION ( 'draft international standard', 'automotive_design', 1998, #95 ) ;
#40 = FILL_AREA_STYLE_COLOUR ( '', #110 ) ;
#41 = FILL_AREA_STYLE ('',( #40 ) ) ;
#42 = SURFACE_STYLE_FILL_AREA ( #41 ) ;
#43 = SURFACE_SIDE_STYLE ('',( #42 ) ) ;
#44 = SURFACE_STYLE_USAGE ( .BOTH. , #43 ) ;
#45 = PRESENTATION_STYLE_ASSIGNMENT (( #44 ) ) ;
#46 =( LENGTH_UNIT ( ) NAMED_UNIT ( * ) SI_UNIT ( $, .METRE. ) );
#47 =( CONVERSION_BASED_UNIT ( 'INCH', #61 ) LENGTH_UNIT ( ) NAMED_UNIT ( #75 ) );
#48 =( NAMED_UNIT ( * ) PLANE_ANGLE_UNIT ( ) SI_UNIT ( $, .RADIAN. ) );
#49 =( NAMED_UNIT ( * ) SI_UNIT ( $, .STERADIAN. ) SOLID_ANGLE_UNIT ( ) );
#50 = CARTESIAN_POINT ( 'NONE',  ( 0.0000000000000000000, 0.0000000000000000000, 0.0000000000000000000 ) ) ;
#51 = DIRECTION ( 'NONE',  ( 0.0000000000000000000, 0.0000000000000000000, 1.000000000000000000 ) ) ;
#52 = DIRECTION ( 'NONE',  ( 1.000000000000000000, 0.0000000000000000000, 0.0000000000000000000 ) ) ;
#53 = SHAPE_DEFINITION_REPRESENTATION ( #57, #69 ) ;
#54 = PRODUCT_CONTEXT ( 'NONE', #95, 'mechanical' ) ;
#55 = APPLICATION_PROTOCOL_DEFINITION ( 'draft international standard', 'automotive_design', 1998, #94 ) ;
#56 = PRODUCT_DEFINITION_CONTEXT ( 'detailed design', #94, 'design' ) ;
#57 = PRODUCT_DEFINITION_SHAPE ( 'NONE', 'NONE',  #97 ) ;
#58 = PRESENTATION_LAYER_ASSIGNMENT (  '', '', ( #113 ) ) ;
#59 = PRODUCT_DEFINITION_FORMATION_WITH_SPECIFIED_SOURCE ( 'ANY', '', #73, .NOT_KNOWN. ) ;
#60 = MECHANICAL_DESIGN_GEOMETRIC_PRESENTATION_REPRESENTATION (  '', ( #113 ), #99 ) ;
#61 = LENGTH_MEASURE_WITH_UNIT ( LENGTH_MEASURE( 0.02539999999999999900 ), #46 );
#62 = LENGTH_MEASURE_WITH_UNIT ( LENGTH_MEASURE( 0.02539999999999999900 ), #35 );
#63 = AXIS2_PLACEMENT_3D ( 'NONE', #50, #51, #52 ) ;
#64 = UNCERTAINTY_MEASURE_WITH_UNIT (LENGTH_MEASURE( 1.000000000000000100E-005 ), #71, 'distance_accuracy_value', 'NONE');
#65 = UNCERTAINTY_MEASURE_WITH_UNIT (LENGTH_MEASURE( 1.000000000000000100E-005 ), #13, 'distance_accuracy_value', 'NONE');
#66 = UNCERTAINTY_MEASURE_WITH_UNIT (LENGTH_MEASURE( 1.000000000000000100E-005 ), #47, 'distance_accuracy_value', 'NONE');
#67 = UNCERTAINTY_MEASURE_WITH_UNIT (LENGTH_MEASURE( 1.000000000000000100E-005 ), #36, 'distance_accuracy_value', 'NONE');
#68 = UNCERTAINTY_MEASURE_WITH_UNIT (LENGTH_MEASURE( 1.000000000000000100E-005 ), #32, 'distance_accuracy_value', 'NONE');
#69 = ADVANCED_BREP_SHAPE_REPRESENTATION ( 'S375C', ( #133, #63 ), #98 ) ;
#70 =( NAMED_UNIT ( * ) PLANE_ANGLE_UNIT ( ) SI_UNIT ( $, .RADIAN. ) );
#71 =( CONVERSION_BASED_UNIT ( 'INCH', #132 ) LENGTH_UNIT ( ) NAMED_UNIT ( #74 ) );
#72 =( LENGTH_UNIT ( ) NAMED_UNIT ( * ) SI_UNIT ( $, .METRE. ) );
#73 = PRODUCT ( 'S375C', 'S375C', '', ( #54 ) ) ;
#74 = DIMENSIONAL_EXPONENTS ( 1.000000000000000000, 0.0000000000000000000, 0.0000000000000000000, 0.0000000000000000000, 0.0000000000000000000, 0.0000000000000000000, 0.0000000000000000000 ) ;
#75 = DIMENSIONAL_EXPONENTS ( 1.000000000000000000, 0.0000000000000000000, 0.0000000000000000000, 0.0000000000000000000, 0.0000000000000000000, 0.0000000000000000000, 0.0000000000000000000 ) ;
#76 = DIMENSIONAL_EXPONENTS ( 1.000000000000000000, 0.0000000000000000000, 0.0000000000000000000, 0.0000000000000000000, 0.0000000000000000000, 0.0000000000000000000, 0.0000000000000000000 ) ;
#77 = DIMENSIONAL_EXPONENTS ( 1.000000000000000000, 0.0000000000000000000, 0.0000000000000000000, 0.0000000000000000000, 0.0000000000000000000, 0.0000000000000000000, 0.0000000000000000000 ) ;
#78 = DIMENSIONAL_EXPONENTS ( 1.000000000000000000, 0.0000000000000000000, 0.0000000000000000000, 0.0000000000000000000, 0.0000000000000000000, 0.0000000000000000000, 0.0000000000000000000 ) ;
#79 = FILL_AREA_STYLE ('',( #84 ) ) ;
#80 = SURFACE_STYLE_FILL_AREA ( #79 ) ;
#81 = PRESENTATION_STYLE_ASSIGNMENT (( #82 ) ) ;
#82 = SURFACE_STYLE_USAGE ( .BOTH. , #83 ) ;
#83 = SURFACE_SIDE_STYLE ('',( #80 ) ) ;
#84 = FILL_AREA_STYLE_COLOUR ( '', #105 ) ;
#85 = CARTESIAN_POINT ( 'NONE',  ( -1.148106374200643900E-017, -0.1875000000000000300, 0.0000000000000000000 ) ) ;
#86 = CARTESIAN_POINT ( 'NONE',  ( -1.148106374200643900E-017, 0.1875000000000000300, 0.0000000000000000000 ) ) ;
#87 = ORIENTED_EDGE ( 'NONE', *, *, #104, .T. ) ;
#88 = ORIENTED_EDGE ( 'NONE', *, *, #103, .T. ) ;
#89 = ORIENTED_EDGE ( 'NONE', *, *, #103, .F. ) ;
#90 = ORIENTED_EDGE ( 'NONE', *, *, #104, .F. ) ;
#91 = VERTEX_POINT ( 'NONE', #86 ) ;
#92 = VERTEX_POINT ( 'NONE', #85 ) ;
#93 = EDGE_LOOP ( 'NONE', ( #90, #88 ) ) ;
#94 = APPLICATION_CONTEXT ( 'automotive_design' ) ;
#95 = APPLICATION_CONTEXT ( 'automotive_design' ) ;
#96 = PRODUCT_RELATED_PRODUCT_CATEGORY ( 'part', '', ( #73 ) ) ;
#97 = PRODUCT_DEFINITION ( 'UNKNOWN', '', #59, #56 ) ;
#98 =( GEOMETRIC_REPRESENTATION_CONTEXT ( 3 ) GLOBAL_UNCERTAINTY_ASSIGNED_CONTEXT ( ( #67 ) ) GLOBAL_UNIT_ASSIGNED_CONTEXT ( ( #36, #37, #38 ) ) REPRESENTATION_CONTEXT ( 'NONE', 'WORKASPACE' ) );
#99 =( GEOMETRIC_REPRESENTATION_CONTEXT ( 3 ) GLOBAL_UNCERTAINTY_ASSIGNED_CONTEXT ( ( #66 ) ) GLOBAL_UNIT_ASSIGNED_CONTEXT ( ( #47, #48, #49 ) ) REPRESENTATION_CONTEXT ( 'NONE', 'WORKASPACE' ) );
#100 =( GEOMETRIC_REPRESENTATION_CONTEXT ( 3 ) GLOBAL_UNCERTAINTY_ASSIGNED_CONTEXT ( ( #68 ) ) GLOBAL_UNIT_ASSIGNED_CONTEXT ( ( #32, #33, #34 ) ) REPRESENTATION_CONTEXT ( 'NONE', 'WORKASPACE' ) );
#101 = ADVANCED_FACE ( 'NONE', ( #131 ), #127, .T. ) ;
#102 = ADVANCED_FACE ( 'NONE', ( #122 ), #120, .T. ) ;
#103 = EDGE_CURVE ( 'NONE', #91, #92, #108, .T. ) ;
#104 = EDGE_CURVE ( 'NONE', #91, #92, #106, .T. ) ;
#105 = COLOUR_RGB ( '',0.5686274509803921400, 0.5686274509803921400, 0.5882352941176470800 ) ;
#106 = CIRCLE ( 'NONE', #115, 0.1875000000000000300 ) ;
#107 = COLOUR_RGB ( '',0.5686274509803921400, 0.5686274509803921400, 0.5882352941176470800 ) ;
#108 = CIRCLE ( 'NONE', #123, 0.1875000000000000300 ) ;
#109 = COLOUR_RGB ( '',0.5686274509803921400, 0.5686274509803921400, 0.5882352941176470800 ) ;
#110 = COLOUR_RGB ( '',0.5686274509803921400, 0.5686274509803921400, 0.5882352941176470800 ) ;
#111 = PRESENTATION_LAYER_ASSIGNMENT (  '', '', ( #128 ) ) ;
#112 = LENGTH_MEASURE_WITH_UNIT ( LENGTH_MEASURE( 0.02539999999999999900 ), #12 );
#113 = STYLED_ITEM ( 'NONE', ( #45 ), #69 ) ;
#114 = MECHANICAL_DESIGN_GEOMETRIC_PRESENTATION_REPRESENTATION (  '', ( #118 ), #135 ) ;
#115 = AXIS2_PLACEMENT_3D ( 'NONE', #22, #23, #24 ) ;
#116 = LENGTH_MEASURE_WITH_UNIT ( LENGTH_MEASURE( 0.02539999999999999900 ), #31 );
#117 = PRESENTATION_LAYER_ASSIGNMENT (  '', '', ( #118 ) ) ;
#118 = STYLED_ITEM ( 'NONE', ( #11 ), #102 ) ;
#119 = MECHANICAL_DESIGN_GEOMETRIC_PRESENTATION_REPRESENTATION (  '', ( #128 ), #100 ) ;
#120 = SPHERICAL_SURFACE ( 'NONE', #121, 0.1875000000000000300 ) ;
#121 = AXIS2_PLACEMENT_3D ( 'NONE', #16, #17, #18 ) ;
#122 = FACE_OUTER_BOUND ( 'NONE', #93, .T. ) ;
#123 = AXIS2_PLACEMENT_3D ( 'NONE', #19, #20, #21 ) ;
#124 = MECHANICAL_DESIGN_GEOMETRIC_PRESENTATION_REPRESENTATION (  '', ( #126 ), #134 ) ;
#125 = CLOSED_SHELL ( 'NONE', ( #102, #101 ) ) ;
#126 = STYLED_ITEM ( 'NONE', ( #81 ), #101 ) ;
#127 = SPHERICAL_SURFACE ( 'NONE', #130, 0.1875000000000000300 ) ;
#128 = STYLED_ITEM ( 'NONE', ( #30 ), #133 ) ;
#129 = PRESENTATION_LAYER_ASSIGNMENT (  '', '', ( #126 ) ) ;
#130 = AXIS2_PLACEMENT_3D ( 'NONE', #3, #4, #5 ) ;
#131 = FACE_OUTER_BOUND ( 'NONE', #2, .T. ) ;
#132 = LENGTH_MEASURE_WITH_UNIT ( LENGTH_MEASURE( 0.02539999999999999900 ), #72 );
#133 = MANIFOLD_SOLID_BREP ( 'Revolve1', #125 ) ;
#134 =( GEOMETRIC_REPRESENTATION_CONTEXT ( 3 ) GLOBAL_UNCERTAINTY_ASSIGNED_CONTEXT ( ( #64 ) ) GLOBAL_UNIT_ASSIGNED_CONTEXT ( ( #71, #70, #1 ) ) REPRESENTATION_CONTEXT ( 'NONE', 'WORKASPACE' ) );
#135 =( GEOMETRIC_REPRESENTATION_CONTEXT ( 3 ) GLOBAL_UNCERTAINTY_ASSIGNED_CONTEXT ( ( #65 ) ) GLOBAL_UNIT_ASSIGNED_CONTEXT ( ( #13, #14, #15 ) ) REPRESENTATION_CONTEXT ( 'NONE', 'WORKASPACE' ) );
ENDSEC;
END-ISO-10303-21;
