ISO-10303-21;
HEADER;
FILE_DESCRIPTION (( 'STEP AP214' ),
    '1' );
FILE_NAME ('S750F.step',
    '2012-04-20T21:07:04',
    ( '' ),
    ( '' ),
    'SwSTEP 2.0',
    'SolidWorks 2012',
    '' );
FILE_SCHEMA (( 'AUTOMOTIVE_DESIGN' ));
ENDSEC;

DATA;
#1 =( NAMED_UNIT ( * ) SI_UNIT ( $, .STERADIAN. ) SOLID_ANGLE_UNIT ( ) );
#2 = CARTESIAN_POINT ( 'NONE',  ( -2.296212748401287700E-017, 0.3750000000000000600, 0.0000000000000000000 ) ) ;
#3 = CARTESIAN_POINT ( 'NONE',  ( -2.296212748401287700E-017, -0.3750000000000000600, 0.0000000000000000000 ) ) ;
#4 = FILL_AREA_STYLE_COLOUR ( '', #108 ) ;
#5 = FILL_AREA_STYLE ('',( #4 ) ) ;
#6 = SURFACE_STYLE_FILL_AREA ( #5 ) ;
#7 = SURFACE_SIDE_STYLE ('',( #6 ) ) ;
#8 = SURFACE_STYLE_USAGE ( .BOTH. , #7 ) ;
#9 = PRESENTATION_STYLE_ASSIGNMENT (( #8 ) ) ;
#10 =( LENGTH_UNIT ( ) NAMED_UNIT ( * ) SI_UNIT ( $, .METRE. ) );
#11 =( CONVERSION_BASED_UNIT ( 'INCH', #115 ) LENGTH_UNIT ( ) NAMED_UNIT ( #79 ) );
#12 =( NAMED_UNIT ( * ) PLANE_ANGLE_UNIT ( ) SI_UNIT ( $, .RADIAN. ) );
#13 =( NAMED_UNIT ( * ) SI_UNIT ( $, .STERADIAN. ) SOLID_ANGLE_UNIT ( ) );
#14 = CARTESIAN_POINT ( 'NONE',  ( 0.0000000000000000000, 0.0000000000000000000, 0.0000000000000000000 ) ) ;
#15 = DIRECTION ( 'NONE',  ( -0.0000000000000000000, -0.0000000000000000000, -1.000000000000000000 ) ) ;
#16 = DIRECTION ( 'NONE',  ( -1.000000000000000000, 0.0000000000000000000, 0.0000000000000000000 ) ) ;
#17 = FILL_AREA_STYLE_COLOUR ( '', #109 ) ;
#18 = FILL_AREA_STYLE ('',( #17 ) ) ;
#19 = SURFACE_STYLE_FILL_AREA ( #18 ) ;
#20 = SURFACE_SIDE_STYLE ('',( #19 ) ) ;
#21 = SURFACE_STYLE_USAGE ( .BOTH. , #20 ) ;
#22 = PRESENTATION_STYLE_ASSIGNMENT (( #21 ) ) ;
#23 =( LENGTH_UNIT ( ) NAMED_UNIT ( * ) SI_UNIT ( $, .METRE. ) );
#24 =( CONVERSION_BASED_UNIT ( 'INCH', #117 ) LENGTH_UNIT ( ) NAMED_UNIT ( #80 ) );
#25 =( NAMED_UNIT ( * ) PLANE_ANGLE_UNIT ( ) SI_UNIT ( $, .RADIAN. ) );
#26 =( NAMED_UNIT ( * ) SI_UNIT ( $, .STERADIAN. ) SOLID_ANGLE_UNIT ( ) );
#27 = CARTESIAN_POINT ( 'NONE',  ( 0.0000000000000000000, 0.0000000000000000000, 0.0000000000000000000 ) ) ;
#28 = DIRECTION ( 'NONE',  ( -0.0000000000000000000, -0.0000000000000000000, -1.000000000000000000 ) ) ;
#29 = DIRECTION ( 'NONE',  ( -1.000000000000000000, 0.0000000000000000000, 0.0000000000000000000 ) ) ;
#30 = CARTESIAN_POINT ( 'NONE',  ( 0.0000000000000000000, 0.0000000000000000000, 0.0000000000000000000 ) ) ;
#31 = DIRECTION ( 'NONE',  ( -1.224646799147353200E-016, 0.0000000000000000000, -1.000000000000000000 ) ) ;
#32 = DIRECTION ( 'NONE',  ( -1.000000000000000000, 0.0000000000000000000, 1.224646799147353200E-016 ) ) ;
#33 = CARTESIAN_POINT ( 'NONE',  ( 0.0000000000000000000, 0.0000000000000000000, 0.0000000000000000000 ) ) ;
#34 = DIRECTION ( 'NONE',  ( -0.0000000000000000000, 0.0000000000000000000, 1.000000000000000000 ) ) ;
#35 = DIRECTION ( 'NONE',  ( 1.000000000000000000, 0.0000000000000000000, 0.0000000000000000000 ) ) ;
#36 =( LENGTH_UNIT ( ) NAMED_UNIT ( * ) SI_UNIT ( $, .METRE. ) );
#37 =( CONVERSION_BASED_UNIT ( 'INCH', #128 ) LENGTH_UNIT ( ) NAMED_UNIT ( #77 ) );
#38 =( NAMED_UNIT ( * ) PLANE_ANGLE_UNIT ( ) SI_UNIT ( $, .RADIAN. ) );
#39 =( NAMED_UNIT ( * ) SI_UNIT ( $, .STERADIAN. ) SOLID_ANGLE_UNIT ( ) );
#40 = APPLICATION_PROTOCOL_DEFINITION ( 'draft international standard', 'automotive_design', 1998, #98 ) ;
#41 = FILL_AREA_STYLE_COLOUR ( '', #99 ) ;
#42 = FILL_AREA_STYLE ('',( #41 ) ) ;
#43 = SURFACE_STYLE_FILL_AREA ( #42 ) ;
#44 = SURFACE_SIDE_STYLE ('',( #43 ) ) ;
#45 = SURFACE_STYLE_USAGE ( .BOTH. , #44 ) ;
#46 = PRESENTATION_STYLE_ASSIGNMENT (( #45 ) ) ;
#47 =( LENGTH_UNIT ( ) NAMED_UNIT ( * ) SI_UNIT ( $, .METRE. ) );
#48 =( CONVERSION_BASED_UNIT ( 'INCH', #64 ) LENGTH_UNIT ( ) NAMED_UNIT ( #78 ) );
#49 =( NAMED_UNIT ( * ) PLANE_ANGLE_UNIT ( ) SI_UNIT ( $, .RADIAN. ) );
#50 =( NAMED_UNIT ( * ) SI_UNIT ( $, .STERADIAN. ) SOLID_ANGLE_UNIT ( ) );
#51 = CARTESIAN_POINT ( 'NONE',  ( 0.0000000000000000000, 0.0000000000000000000, 0.0000000000000000000 ) ) ;
#52 = DIRECTION ( 'NONE',  ( 0.0000000000000000000, 0.0000000000000000000, 1.000000000000000000 ) ) ;
#53 = DIRECTION ( 'NONE',  ( 1.000000000000000000, 0.0000000000000000000, 0.0000000000000000000 ) ) ;
#54 = SHAPE_DEFINITION_REPRESENTATION ( #135, #67 ) ;
#55 = PRODUCT_CONTEXT ( 'NONE', #98, 'mechanical' ) ;
#56 = APPLICATION_PROTOCOL_DEFINITION ( 'draft international standard', 'automotive_design', 1998, #97 ) ;
#57 = PRODUCT_DEFINITION_CONTEXT ( 'detailed design', #97, 'design' ) ;
#58 = MANIFOLD_SOLID_BREP ( 'Revolve1', #129 ) ;
#59 = STYLED_ITEM ( 'NONE', ( #46 ), #67 ) ;
#60 = AXIS2_PLACEMENT_3D ( 'NONE', #51, #52, #53 ) ;
#61 = PRESENTATION_LAYER_ASSIGNMENT (  '', '', ( #59 ) ) ;
#62 = MECHANICAL_DESIGN_GEOMETRIC_PRESENTATION_REPRESENTATION (  '', ( #59 ), #103 ) ;
#63 = AXIS2_PLACEMENT_3D ( 'NONE', #33, #34, #35 ) ;
#64 = LENGTH_MEASURE_WITH_UNIT ( LENGTH_MEASURE( 0.02539999999999999900 ), #47 );
#65 = PRODUCT_DEFINITION_FORMATION_WITH_SPECIFIED_SOURCE ( 'ANY', '', #76, .NOT_KNOWN. ) ;
#66 = UNCERTAINTY_MEASURE_WITH_UNIT (LENGTH_MEASURE( 1.000000000000000100E-005 ), #48, 'distance_accuracy_value', 'NONE');
#67 = ADVANCED_BREP_SHAPE_REPRESENTATION ( 'S750F', ( #58, #60 ), #102 ) ;
#68 = UNCERTAINTY_MEASURE_WITH_UNIT (LENGTH_MEASURE( 1.000000000000000100E-005 ), #37, 'distance_accuracy_value', 'NONE');
#69 = UNCERTAINTY_MEASURE_WITH_UNIT (LENGTH_MEASURE( 1.000000000000000100E-005 ), #73, 'distance_accuracy_value', 'NONE');
#70 = UNCERTAINTY_MEASURE_WITH_UNIT (LENGTH_MEASURE( 1.000000000000000100E-005 ), #24, 'distance_accuracy_value', 'NONE');
#71 = UNCERTAINTY_MEASURE_WITH_UNIT (LENGTH_MEASURE( 1.000000000000000100E-005 ), #11, 'distance_accuracy_value', 'NONE');
#72 =( NAMED_UNIT ( * ) PLANE_ANGLE_UNIT ( ) SI_UNIT ( $, .RADIAN. ) );
#73 =( CONVERSION_BASED_UNIT ( 'INCH', #130 ) LENGTH_UNIT ( ) NAMED_UNIT ( #75 ) );
#74 =( LENGTH_UNIT ( ) NAMED_UNIT ( * ) SI_UNIT ( $, .METRE. ) );
#75 = DIMENSIONAL_EXPONENTS ( 1.000000000000000000, 0.0000000000000000000, 0.0000000000000000000, 0.0000000000000000000, 0.0000000000000000000, 0.0000000000000000000, 0.0000000000000000000 ) ;
#76 = PRODUCT ( 'S750F', 'S750F', '', ( #55 ) ) ;
#77 = DIMENSIONAL_EXPONENTS ( 1.000000000000000000, 0.0000000000000000000, 0.0000000000000000000, 0.0000000000000000000, 0.0000000000000000000, 0.0000000000000000000, 0.0000000000000000000 ) ;
#78 = DIMENSIONAL_EXPONENTS ( 1.000000000000000000, 0.0000000000000000000, 0.0000000000000000000, 0.0000000000000000000, 0.0000000000000000000, 0.0000000000000000000, 0.0000000000000000000 ) ;
#79 = DIMENSIONAL_EXPONENTS ( 1.000000000000000000, 0.0000000000000000000, 0.0000000000000000000, 0.0000000000000000000, 0.0000000000000000000, 0.0000000000000000000, 0.0000000000000000000 ) ;
#80 = DIMENSIONAL_EXPONENTS ( 1.000000000000000000, 0.0000000000000000000, 0.0000000000000000000, 0.0000000000000000000, 0.0000000000000000000, 0.0000000000000000000, 0.0000000000000000000 ) ;
#81 = PRESENTATION_STYLE_ASSIGNMENT (( #82 ) ) ;
#82 = SURFACE_STYLE_USAGE ( .BOTH. , #83 ) ;
#83 = SURFACE_SIDE_STYLE ('',( #84 ) ) ;
#84 = SURFACE_STYLE_FILL_AREA ( #85 ) ;
#85 = FILL_AREA_STYLE ('',( #86 ) ) ;
#86 = FILL_AREA_STYLE_COLOUR ( '', #106 ) ;
#87 = ORIENTED_EDGE ( 'NONE', *, *, #104, .T. ) ;
#88 = ORIENTED_EDGE ( 'NONE', *, *, #104, .F. ) ;
#89 = ORIENTED_EDGE ( 'NONE', *, *, #105, .F. ) ;
#90 = VERTEX_POINT ( 'NONE', #2 ) ;
#91 = VERTEX_POINT ( 'NONE', #3 ) ;
#92 = ORIENTED_EDGE ( 'NONE', *, *, #105, .T. ) ;
#93 = EDGE_LOOP ( 'NONE', ( #89, #87 ) ) ;
#94 = EDGE_LOOP ( 'NONE', ( #88, #92 ) ) ;
#95 =( GEOMETRIC_REPRESENTATION_CONTEXT ( 3 ) GLOBAL_UNCERTAINTY_ASSIGNED_CONTEXT ( ( #69 ) ) GLOBAL_UNIT_ASSIGNED_CONTEXT ( ( #73, #72, #1 ) ) REPRESENTATION_CONTEXT ( 'NONE', 'WORKASPACE' ) );
#96 =( GEOMETRIC_REPRESENTATION_CONTEXT ( 3 ) GLOBAL_UNCERTAINTY_ASSIGNED_CONTEXT ( ( #71 ) ) GLOBAL_UNIT_ASSIGNED_CONTEXT ( ( #11, #12, #13 ) ) REPRESENTATION_CONTEXT ( 'NONE', 'WORKASPACE' ) );
#97 = APPLICATION_CONTEXT ( 'automotive_design' ) ;
#98 = APPLICATION_CONTEXT ( 'automotive_design' ) ;
#99 = COLOUR_RGB ( '',0.5686274509803921400, 0.5686274509803921400, 0.5882352941176470800 ) ;
#100 = ADVANCED_FACE ( 'NONE', ( #127 ), #131, .T. ) ;
#101 = ADVANCED_FACE ( 'NONE', ( #120 ), #122, .T. ) ;
#102 =( GEOMETRIC_REPRESENTATION_CONTEXT ( 3 ) GLOBAL_UNCERTAINTY_ASSIGNED_CONTEXT ( ( #68 ) ) GLOBAL_UNIT_ASSIGNED_CONTEXT ( ( #37, #38, #39 ) ) REPRESENTATION_CONTEXT ( 'NONE', 'WORKASPACE' ) );
#103 =( GEOMETRIC_REPRESENTATION_CONTEXT ( 3 ) GLOBAL_UNCERTAINTY_ASSIGNED_CONTEXT ( ( #66 ) ) GLOBAL_UNIT_ASSIGNED_CONTEXT ( ( #48, #49, #50 ) ) REPRESENTATION_CONTEXT ( 'NONE', 'WORKASPACE' ) );
#104 = EDGE_CURVE ( 'NONE', #90, #91, #110, .T. ) ;
#105 = EDGE_CURVE ( 'NONE', #90, #91, #107, .T. ) ;
#106 = COLOUR_RGB ( '',0.5686274509803921400, 0.5686274509803921400, 0.5882352941176470800 ) ;
#107 = CIRCLE ( 'NONE', #63, 0.3750000000000000600 ) ;
#108 = COLOUR_RGB ( '',0.5686274509803921400, 0.5686274509803921400, 0.5882352941176470800 ) ;
#109 = COLOUR_RGB ( '',0.5686274509803921400, 0.5686274509803921400, 0.5882352941176470800 ) ;
#110 = CIRCLE ( 'NONE', #119, 0.3750000000000000600 ) ;
#111 =( GEOMETRIC_REPRESENTATION_CONTEXT ( 3 ) GLOBAL_UNCERTAINTY_ASSIGNED_CONTEXT ( ( #70 ) ) GLOBAL_UNIT_ASSIGNED_CONTEXT ( ( #24, #25, #26 ) ) REPRESENTATION_CONTEXT ( 'NONE', 'WORKASPACE' ) );
#112 = MECHANICAL_DESIGN_GEOMETRIC_PRESENTATION_REPRESENTATION (  '', ( #114 ), #96 ) ;
#113 = PRESENTATION_LAYER_ASSIGNMENT (  '', '', ( #114 ) ) ;
#114 = STYLED_ITEM ( 'NONE', ( #9 ), #100 ) ;
#115 = LENGTH_MEASURE_WITH_UNIT ( LENGTH_MEASURE( 0.02539999999999999900 ), #10 );
#116 = PRESENTATION_LAYER_ASSIGNMENT (  '', '', ( #123 ) ) ;
#117 = LENGTH_MEASURE_WITH_UNIT ( LENGTH_MEASURE( 0.02539999999999999900 ), #23 );
#118 = MECHANICAL_DESIGN_GEOMETRIC_PRESENTATION_REPRESENTATION (  '', ( #123 ), #111 ) ;
#119 = AXIS2_PLACEMENT_3D ( 'NONE', #30, #31, #32 ) ;
#120 = FACE_OUTER_BOUND ( 'NONE', #93, .T. ) ;
#121 = AXIS2_PLACEMENT_3D ( 'NONE', #27, #28, #29 ) ;
#122 = SPHERICAL_SURFACE ( 'NONE', #121, 0.3750000000000000600 ) ;
#123 = STYLED_ITEM ( 'NONE', ( #22 ), #101 ) ;
#124 = STYLED_ITEM ( 'NONE', ( #81 ), #58 ) ;
#125 = PRESENTATION_LAYER_ASSIGNMENT (  '', '', ( #124 ) ) ;
#126 = AXIS2_PLACEMENT_3D ( 'NONE', #14, #15, #16 ) ;
#127 = FACE_OUTER_BOUND ( 'NONE', #94, .T. ) ;
#128 = LENGTH_MEASURE_WITH_UNIT ( LENGTH_MEASURE( 0.02539999999999999900 ), #36 );
#129 = CLOSED_SHELL ( 'NONE', ( #101, #100 ) ) ;
#130 = LENGTH_MEASURE_WITH_UNIT ( LENGTH_MEASURE( 0.02539999999999999900 ), #74 );
#131 = SPHERICAL_SURFACE ( 'NONE', #126, 0.3750000000000000600 ) ;
#132 = MECHANICAL_DESIGN_GEOMETRIC_PRESENTATION_REPRESENTATION (  '', ( #124 ), #95 ) ;
#133 = PRODUCT_DEFINITION ( 'UNKNOWN', '', #65, #57 ) ;
#134 = PRODUCT_RELATED_PRODUCT_CATEGORY ( 'part', '', ( #76 ) ) ;
#135 = PRODUCT_DEFINITION_SHAPE ( 'NONE', 'NONE',  #133 ) ;
ENDSEC;
END-ISO-10303-21;
