ISO-10303-21;
HEADER;
FILE_DESCRIPTION (( 'STEP AP214' ),
    '1' );
FILE_NAME ('SR015E-10.step',
    '2012-04-20T21:07:19',
    ( '' ),
    ( '' ),
    'SwSTEP 2.0',
    'SolidWorks 2012',
    '' );
FILE_SCHEMA (( 'AUTOMOTIVE_DESIGN' ));
ENDSEC;

DATA;
#1 = UNCERTAINTY_MEASURE_WITH_UNIT (LENGTH_MEASURE( 1.000000000000000100E-005 ), #187, 'distance_accuracy_value', 'NONE');
#2 = ADVANCED_BREP_SHAPE_REPRESENTATION ( 'SR015E-10', ( #40, #99 ), #28 ) ;
#3 = UNCERTAINTY_MEASURE_WITH_UNIT (LENGTH_MEASURE( 1.000000000000000100E-005 ), #111, 'distance_accuracy_value', 'NONE');
#4 = UNCERTAINTY_MEASURE_WITH_UNIT (LENGTH_MEASURE( 1.000000000000000100E-005 ), #122, 'distance_accuracy_value', 'NONE');
#5 = COLOUR_RGB ( '',0.5686274509803921400, 0.5686274509803921400, 0.5882352941176470800 ) ;
#6 = EDGE_CURVE ( 'NONE', #52, #42, #50, .T. ) ;
#7 = EDGE_CURVE ( 'NONE', #45, #52, #55, .T. ) ;
#8 = EDGE_CURVE ( 'NONE', #51, #46, #58, .T. ) ;
#9 = EDGE_CURVE ( 'NONE', #47, #51, #61, .T. ) ;
#10 = EDGE_CURVE ( 'NONE', #44, #43, #64, .T. ) ;
#11 = EDGE_CURVE ( 'NONE', #42, #43, #137, .T. ) ;
#12 = EDGE_CURVE ( 'NONE', #46, #44, #134, .T. ) ;
#13 = EDGE_CURVE ( 'NONE', #47, #45, #131, .T. ) ;
#14 = EDGE_CURVE ( 'NONE', #43, #45, #157, .T. ) ;
#15 = EDGE_CURVE ( 'NONE', #51, #52, #36, .T. ) ;
#16 = EDGE_CURVE ( 'NONE', #44, #47, #195, .T. ) ;
#17 = EDGE_CURVE ( 'NONE', #46, #42, #192, .T. ) ;
#18 = ADVANCED_FACE ( 'NONE', ( #66 ), #53, .F. ) ;
#19 = ADVANCED_FACE ( 'NONE', ( #79 ), #196, .F. ) ;
#20 = ADVANCED_FACE ( 'NONE', ( #82 ), #205, .F. ) ;
#21 = ADVANCED_FACE ( 'NONE', ( #84 ), #209, .F. ) ;
#22 = ADVANCED_FACE ( 'NONE', ( #86 ), #152, .F. ) ;
#23 = ADVANCED_FACE ( 'NONE', ( #88 ), #139, .T. ) ;
#24 = COLOUR_RGB ( '',0.5686274509803921400, 0.5686274509803921400, 0.5882352941176470800 ) ;
#25 = PRODUCT_DEFINITION ( 'UNKNOWN', '', #100, #39 ) ;
#26 = PRODUCT_RELATED_PRODUCT_CATEGORY ( 'part', '', ( #30 ) ) ;
#27 =( GEOMETRIC_REPRESENTATION_CONTEXT ( 3 ) GLOBAL_UNCERTAINTY_ASSIGNED_CONTEXT ( ( #4 ) ) GLOBAL_UNIT_ASSIGNED_CONTEXT ( ( #122, #123, #124 ) ) REPRESENTATION_CONTEXT ( 'NONE', 'WORKASPACE' ) );
#28 =( GEOMETRIC_REPRESENTATION_CONTEXT ( 3 ) GLOBAL_UNCERTAINTY_ASSIGNED_CONTEXT ( ( #3 ) ) GLOBAL_UNIT_ASSIGNED_CONTEXT ( ( #111, #112, #113 ) ) REPRESENTATION_CONTEXT ( 'NONE', 'WORKASPACE' ) );
#29 =( GEOMETRIC_REPRESENTATION_CONTEXT ( 3 ) GLOBAL_UNCERTAINTY_ASSIGNED_CONTEXT ( ( #1 ) ) GLOBAL_UNIT_ASSIGNED_CONTEXT ( ( #187, #34, #101 ) ) REPRESENTATION_CONTEXT ( 'NONE', 'WORKASPACE' ) );
#30 = PRODUCT ( 'SR015E-10', 'SR015E-10', '', ( #129 ) ) ;
#31 = DIMENSIONAL_EXPONENTS ( 1.000000000000000000, 0.0000000000000000000, 0.0000000000000000000, 0.0000000000000000000, 0.0000000000000000000, 0.0000000000000000000, 0.0000000000000000000 ) ;
#32 = DIMENSIONAL_EXPONENTS ( 1.000000000000000000, 0.0000000000000000000, 0.0000000000000000000, 0.0000000000000000000, 0.0000000000000000000, 0.0000000000000000000, 0.0000000000000000000 ) ;
#33 = DIMENSIONAL_EXPONENTS ( 1.000000000000000000, 0.0000000000000000000, 0.0000000000000000000, 0.0000000000000000000, 0.0000000000000000000, 0.0000000000000000000, 0.0000000000000000000 ) ;
#34 =( NAMED_UNIT ( * ) PLANE_ANGLE_UNIT ( ) SI_UNIT ( $, .RADIAN. ) );
#35 = DIRECTION ( 'NONE',  ( -0.0000000000000000000, -0.0000000000000000000, -1.000000000000000000 ) ) ;
#36 = LINE ( 'NONE', #37, #77 ) ;
#37 = CARTESIAN_POINT ( 'NONE',  ( 0.0000000000000000000, 0.02000000000000000000, -0.6250000000000012200 ) ) ;
#38 = PRODUCT_DEFINITION_SHAPE ( 'NONE', 'NONE',  #25 ) ;
#39 = PRODUCT_DEFINITION_CONTEXT ( 'detailed design', #190, 'design' ) ;
#40 = MANIFOLD_SOLID_BREP ( 'Boss-Extrude1', #65 ) ;
#41 = EDGE_LOOP ( 'NONE', ( #166, #163, #165, #164 ) ) ;
#42 = VERTEX_POINT ( 'NONE', #102 ) ;
#43 = VERTEX_POINT ( 'NONE', #103 ) ;
#44 = VERTEX_POINT ( 'NONE', #104 ) ;
#45 = VERTEX_POINT ( 'NONE', #105 ) ;
#46 = VERTEX_POINT ( 'NONE', #106 ) ;
#47 = VERTEX_POINT ( 'NONE', #107 ) ;
#48 = CARTESIAN_POINT ( 'NONE',  ( 10.00000000000000000, 0.02000000000000000000, -1.201684671663340200E-015 ) ) ;
#49 = CARTESIAN_POINT ( 'NONE',  ( 0.0000000000000000000, 0.0000000000000000000, 0.0000000000000000000 ) ) ;
#50 = LINE ( 'NONE', #49, #67 ) ;
#51 = VERTEX_POINT ( 'NONE', #108 ) ;
#52 = VERTEX_POINT ( 'NONE', #109 ) ;
#53 = PLANE ( 'NONE',  #81 ) ;
#54 = DIRECTION ( 'NONE',  ( -0.0000000000000000000, -0.0000000000000000000, 1.000000000000000000 ) ) ;
#55 = LINE ( 'NONE', #56, #68 ) ;
#56 = CARTESIAN_POINT ( 'NONE',  ( 0.0000000000000000000, 0.0000000000000000000, -0.6250000000000012200 ) ) ;
#57 = DIRECTION ( 'NONE',  ( -1.000000000000000000, -0.0000000000000000000, -0.0000000000000000000 ) ) ;
#58 = LINE ( 'NONE', #59, #69 ) ;
#59 = CARTESIAN_POINT ( 'NONE',  ( 0.0000000000000000000, 0.02000000000000000000, 0.0000000000000000000 ) ) ;
#60 = DIRECTION ( 'NONE',  ( -0.0000000000000000000, -0.0000000000000000000, 1.000000000000000000 ) ) ;
#61 = LINE ( 'NONE', #62, #70 ) ;
#62 = CARTESIAN_POINT ( 'NONE',  ( 0.0000000000000000000, 0.02000000000000000000, -0.6250000000000012200 ) ) ;
#63 = DIRECTION ( 'NONE',  ( -1.000000000000000000, -0.0000000000000000000, -0.0000000000000000000 ) ) ;
#64 = LINE ( 'NONE', #48, #71 ) ;
#65 = CLOSED_SHELL ( 'NONE', ( #21, #20, #19, #18, #22, #23 ) ) ;
#66 = FACE_OUTER_BOUND ( 'NONE', #158, .T. ) ;
#67 = VECTOR ( 'NONE', #54, 39.37007874015748100 ) ;
#68 = VECTOR ( 'NONE', #57, 39.37007874015748100 ) ;
#69 = VECTOR ( 'NONE', #60, 39.37007874015748100 ) ;
#70 = VECTOR ( 'NONE', #63, 39.37007874015748100 ) ;
#71 = VECTOR ( 'NONE', #135, 39.37007874015748100 ) ;
#72 = LENGTH_MEASURE_WITH_UNIT ( LENGTH_MEASURE( 0.02539999999999999900 ), #110 );
#73 = VECTOR ( 'NONE', #136, 39.37007874015748100 ) ;
#74 = VECTOR ( 'NONE', #132, 39.37007874015748100 ) ;
#75 = VECTOR ( 'NONE', #156, 39.37007874015748100 ) ;
#76 = VECTOR ( 'NONE', #35, 39.37007874015748100 ) ;
#77 = VECTOR ( 'NONE', #191, 39.37007874015748100 ) ;
#78 = VECTOR ( 'NONE', #194, 39.37007874015748100 ) ;
#79 = FACE_OUTER_BOUND ( 'NONE', #160, .T. ) ;
#80 = VECTOR ( 'NONE', #201, 39.37007874015748100 ) ;
#81 = AXIS2_PLACEMENT_3D ( 'NONE', #199, #200, #198 ) ;
#82 = FACE_OUTER_BOUND ( 'NONE', #41, .T. ) ;
#83 = AXIS2_PLACEMENT_3D ( 'NONE', #202, #203, #204 ) ;
#84 = FACE_OUTER_BOUND ( 'NONE', #159, .T. ) ;
#85 = AXIS2_PLACEMENT_3D ( 'NONE', #210, #211, #206 ) ;
#86 = FACE_OUTER_BOUND ( 'NONE', #161, .T. ) ;
#87 = AXIS2_PLACEMENT_3D ( 'NONE', #208, #207, #153 ) ;
#88 = FACE_OUTER_BOUND ( 'NONE', #162, .T. ) ;
#89 = AXIS2_PLACEMENT_3D ( 'NONE', #151, #150, #149 ) ;
#90 = STYLED_ITEM ( 'NONE', ( #140 ), #40 ) ;
#91 = AXIS2_PLACEMENT_3D ( 'NONE', #148, #147, #146 ) ;
#92 = PRESENTATION_LAYER_ASSIGNMENT (  '', '', ( #90 ) ) ;
#93 = MECHANICAL_DESIGN_GEOMETRIC_PRESENTATION_REPRESENTATION (  '', ( #90 ), #29 ) ;
#94 = LENGTH_MEASURE_WITH_UNIT ( LENGTH_MEASURE( 0.02539999999999999900 ), #188 );
#95 = STYLED_ITEM ( 'NONE', ( #120 ), #2 ) ;
#96 = PRESENTATION_LAYER_ASSIGNMENT (  '', '', ( #95 ) ) ;
#97 = MECHANICAL_DESIGN_GEOMETRIC_PRESENTATION_REPRESENTATION (  '', ( #95 ), #27 ) ;
#98 = LENGTH_MEASURE_WITH_UNIT ( LENGTH_MEASURE( 0.02539999999999999900 ), #121 );
#99 = AXIS2_PLACEMENT_3D ( 'NONE', #125, #126, #127 ) ;
#100 = PRODUCT_DEFINITION_FORMATION_WITH_SPECIFIED_SOURCE ( 'ANY', '', #30, .NOT_KNOWN. ) ;
#101 =( NAMED_UNIT ( * ) SI_UNIT ( $, .STERADIAN. ) SOLID_ANGLE_UNIT ( ) );
#102 = CARTESIAN_POINT ( 'NONE',  ( 0.0000000000000000000, 0.0000000000000000000, 0.0000000000000000000 ) ) ;
#103 = CARTESIAN_POINT ( 'NONE',  ( 10.00000000000000000, 0.0000000000000000000, -1.201684671663340200E-015 ) ) ;
#104 = CARTESIAN_POINT ( 'NONE',  ( 10.00000000000000000, 0.02000000000000000000, -1.201684671663340200E-015 ) ) ;
#105 = CARTESIAN_POINT ( 'NONE',  ( 10.00000000000000000, 0.0000000000000000000, -0.6250000000000012200 ) ) ;
#106 = CARTESIAN_POINT ( 'NONE',  ( 0.0000000000000000000, 0.02000000000000000000, 0.0000000000000000000 ) ) ;
#107 = CARTESIAN_POINT ( 'NONE',  ( 10.00000000000000000, 0.02000000000000000000, -0.6250000000000012200 ) ) ;
#108 = CARTESIAN_POINT ( 'NONE',  ( 0.0000000000000000000, 0.02000000000000000000, -0.6250000000000012200 ) ) ;
#109 = CARTESIAN_POINT ( 'NONE',  ( 0.0000000000000000000, 0.0000000000000000000, -0.6250000000000012200 ) ) ;
#110 =( LENGTH_UNIT ( ) NAMED_UNIT ( * ) SI_UNIT ( $, .METRE. ) );
#111 =( CONVERSION_BASED_UNIT ( 'INCH', #72 ) LENGTH_UNIT ( ) NAMED_UNIT ( #33 ) );
#112 =( NAMED_UNIT ( * ) PLANE_ANGLE_UNIT ( ) SI_UNIT ( $, .RADIAN. ) );
#113 =( NAMED_UNIT ( * ) SI_UNIT ( $, .STERADIAN. ) SOLID_ANGLE_UNIT ( ) );
#114 = APPLICATION_PROTOCOL_DEFINITION ( 'draft international standard', 'automotive_design', 1998, #189 ) ;
#115 = FILL_AREA_STYLE_COLOUR ( '', #5 ) ;
#116 = FILL_AREA_STYLE ('',( #115 ) ) ;
#117 = SURFACE_STYLE_FILL_AREA ( #116 ) ;
#118 = SURFACE_SIDE_STYLE ('',( #117 ) ) ;
#119 = SURFACE_STYLE_USAGE ( .BOTH. , #118 ) ;
#120 = PRESENTATION_STYLE_ASSIGNMENT (( #119 ) ) ;
#121 =( LENGTH_UNIT ( ) NAMED_UNIT ( * ) SI_UNIT ( $, .METRE. ) );
#122 =( CONVERSION_BASED_UNIT ( 'INCH', #98 ) LENGTH_UNIT ( ) NAMED_UNIT ( #31 ) );
#123 =( NAMED_UNIT ( * ) PLANE_ANGLE_UNIT ( ) SI_UNIT ( $, .RADIAN. ) );
#124 =( NAMED_UNIT ( * ) SI_UNIT ( $, .STERADIAN. ) SOLID_ANGLE_UNIT ( ) );
#125 = CARTESIAN_POINT ( 'NONE',  ( 0.0000000000000000000, 0.0000000000000000000, 0.0000000000000000000 ) ) ;
#126 = DIRECTION ( 'NONE',  ( 0.0000000000000000000, 0.0000000000000000000, 1.000000000000000000 ) ) ;
#127 = DIRECTION ( 'NONE',  ( 1.000000000000000000, 0.0000000000000000000, 0.0000000000000000000 ) ) ;
#128 = SHAPE_DEFINITION_REPRESENTATION ( #38, #2 ) ;
#129 = PRODUCT_CONTEXT ( 'NONE', #189, 'mechanical' ) ;
#130 = APPLICATION_PROTOCOL_DEFINITION ( 'draft international standard', 'automotive_design', 1998, #190 ) ;
#131 = LINE ( 'NONE', #155, #75 ) ;
#132 = DIRECTION ( 'NONE',  ( 1.000000000000000000, -0.0000000000000000000, -1.201684671663340200E-016 ) ) ;
#133 = CARTESIAN_POINT ( 'NONE',  ( 10.00000000000000000, 0.02000000000000000000, -1.201684671663340200E-015 ) ) ;
#134 = LINE ( 'NONE', #133, #74 ) ;
#135 = DIRECTION ( 'NONE',  ( -0.0000000000000000000, -1.000000000000000000, -0.0000000000000000000 ) ) ;
#136 = DIRECTION ( 'NONE',  ( 1.000000000000000000, -0.0000000000000000000, -1.201684671663340200E-016 ) ) ;
#137 = LINE ( 'NONE', #138, #73 ) ;
#138 = CARTESIAN_POINT ( 'NONE',  ( 10.00000000000000000, 0.0000000000000000000, -1.201684671663340200E-015 ) ) ;
#139 = PLANE ( 'NONE',  #91 ) ;
#140 = PRESENTATION_STYLE_ASSIGNMENT (( #141 ) ) ;
#141 = SURFACE_STYLE_USAGE ( .BOTH. , #142 ) ;
#142 = SURFACE_SIDE_STYLE ('',( #143 ) ) ;
#143 = SURFACE_STYLE_FILL_AREA ( #144 ) ;
#144 = FILL_AREA_STYLE ('',( #145 ) ) ;
#145 = FILL_AREA_STYLE_COLOUR ( '', #24 ) ;
#146 = DIRECTION ( 'NONE',  ( 0.0000000000000000000, 0.0000000000000000000, -1.000000000000000000 ) ) ;
#147 = DIRECTION ( 'NONE',  ( 0.0000000000000000000, -1.000000000000000000, -0.0000000000000000000 ) ) ;
#148 = CARTESIAN_POINT ( 'NONE',  ( 0.0000000000000000000, 0.0000000000000000000, 0.0000000000000000000 ) ) ;
#149 = DIRECTION ( 'NONE',  ( 0.0000000000000000000, 0.0000000000000000000, -1.000000000000000000 ) ) ;
#150 = DIRECTION ( 'NONE',  ( 0.0000000000000000000, -1.000000000000000000, -0.0000000000000000000 ) ) ;
#151 = CARTESIAN_POINT ( 'NONE',  ( 0.0000000000000000000, 0.02000000000000000000, 0.0000000000000000000 ) ) ;
#152 = PLANE ( 'NONE',  #89 ) ;
#153 = DIRECTION ( 'NONE',  ( -1.000000000000000000, 0.0000000000000000000, 1.201684671663340200E-016 ) ) ;
#154 = CARTESIAN_POINT ( 'NONE',  ( 10.00000000000000000, 0.0000000000000000000, -0.6250000000000012200 ) ) ;
#155 = CARTESIAN_POINT ( 'NONE',  ( 10.00000000000000000, 0.02000000000000000000, -0.6250000000000012200 ) ) ;
#156 = DIRECTION ( 'NONE',  ( -0.0000000000000000000, -1.000000000000000000, -0.0000000000000000000 ) ) ;
#157 = LINE ( 'NONE', #154, #76 ) ;
#158 = EDGE_LOOP ( 'NONE', ( #182, #180, #183, #171 ) ) ;
#159 = EDGE_LOOP ( 'NONE', ( #170, #168, #169, #167 ) ) ;
#160 = EDGE_LOOP ( 'NONE', ( #181, #184, #186, #185 ) ) ;
#161 = EDGE_LOOP ( 'NONE', ( #172, #173, #174, #179 ) ) ;
#162 = EDGE_LOOP ( 'NONE', ( #176, #177, #178, #175 ) ) ;
#163 = ORIENTED_EDGE ( 'NONE', *, *, #13, .F. ) ;
#164 = ORIENTED_EDGE ( 'NONE', *, *, #10, .T. ) ;
#165 = ORIENTED_EDGE ( 'NONE', *, *, #16, .F. ) ;
#166 = ORIENTED_EDGE ( 'NONE', *, *, #14, .T. ) ;
#167 = ORIENTED_EDGE ( 'NONE', *, *, #17, .T. ) ;
#168 = ORIENTED_EDGE ( 'NONE', *, *, #10, .F. ) ;
#169 = ORIENTED_EDGE ( 'NONE', *, *, #12, .F. ) ;
#170 = ORIENTED_EDGE ( 'NONE', *, *, #11, .T. ) ;
#171 = ORIENTED_EDGE ( 'NONE', *, *, #15, .T. ) ;
#172 = ORIENTED_EDGE ( 'NONE', *, *, #12, .T. ) ;
#173 = ORIENTED_EDGE ( 'NONE', *, *, #16, .T. ) ;
#174 = ORIENTED_EDGE ( 'NONE', *, *, #9, .T. ) ;
#175 = ORIENTED_EDGE ( 'NONE', *, *, #14, .F. ) ;
#176 = ORIENTED_EDGE ( 'NONE', *, *, #11, .F. ) ;
#177 = ORIENTED_EDGE ( 'NONE', *, *, #6, .F. ) ;
#178 = ORIENTED_EDGE ( 'NONE', *, *, #7, .F. ) ;
#179 = ORIENTED_EDGE ( 'NONE', *, *, #8, .T. ) ;
#180 = ORIENTED_EDGE ( 'NONE', *, *, #17, .F. ) ;
#181 = ORIENTED_EDGE ( 'NONE', *, *, #7, .T. ) ;
#182 = ORIENTED_EDGE ( 'NONE', *, *, #6, .T. ) ;
#183 = ORIENTED_EDGE ( 'NONE', *, *, #8, .F. ) ;
#184 = ORIENTED_EDGE ( 'NONE', *, *, #15, .F. ) ;
#185 = ORIENTED_EDGE ( 'NONE', *, *, #13, .T. ) ;
#186 = ORIENTED_EDGE ( 'NONE', *, *, #9, .F. ) ;
#187 =( CONVERSION_BASED_UNIT ( 'INCH', #94 ) LENGTH_UNIT ( ) NAMED_UNIT ( #32 ) );
#188 =( LENGTH_UNIT ( ) NAMED_UNIT ( * ) SI_UNIT ( $, .METRE. ) );
#189 = APPLICATION_CONTEXT ( 'automotive_design' ) ;
#190 = APPLICATION_CONTEXT ( 'automotive_design' ) ;
#191 = DIRECTION ( 'NONE',  ( -0.0000000000000000000, -1.000000000000000000, -0.0000000000000000000 ) ) ;
#192 = LINE ( 'NONE', #197, #80 ) ;
#193 = CARTESIAN_POINT ( 'NONE',  ( 10.00000000000000000, 0.02000000000000000000, -0.6250000000000012200 ) ) ;
#194 = DIRECTION ( 'NONE',  ( -0.0000000000000000000, -0.0000000000000000000, -1.000000000000000000 ) ) ;
#195 = LINE ( 'NONE', #193, #78 ) ;
#196 = PLANE ( 'NONE',  #83 ) ;
#197 = CARTESIAN_POINT ( 'NONE',  ( 0.0000000000000000000, 0.02000000000000000000, 0.0000000000000000000 ) ) ;
#198 = DIRECTION ( 'NONE',  ( 0.0000000000000000000, 0.0000000000000000000, -1.000000000000000000 ) ) ;
#199 = CARTESIAN_POINT ( 'NONE',  ( 0.0000000000000000000, 0.02000000000000000000, 0.0000000000000000000 ) ) ;
#200 = DIRECTION ( 'NONE',  ( 1.000000000000000000, -0.0000000000000000000, 0.0000000000000000000 ) ) ;
#201 = DIRECTION ( 'NONE',  ( -0.0000000000000000000, -1.000000000000000000, -0.0000000000000000000 ) ) ;
#202 = CARTESIAN_POINT ( 'NONE',  ( 0.0000000000000000000, 0.02000000000000000000, -0.6250000000000012200 ) ) ;
#203 = DIRECTION ( 'NONE',  ( 0.0000000000000000000, 0.0000000000000000000, 1.000000000000000000 ) ) ;
#204 = DIRECTION ( 'NONE',  ( 1.000000000000000000, 0.0000000000000000000, -0.0000000000000000000 ) ) ;
#205 = PLANE ( 'NONE',  #85 ) ;
#206 = DIRECTION ( 'NONE',  ( 0.0000000000000000000, 0.0000000000000000000, 1.000000000000000000 ) ) ;
#207 = DIRECTION ( 'NONE',  ( -1.201684671663340200E-016, 0.0000000000000000000, -1.000000000000000000 ) ) ;
#208 = CARTESIAN_POINT ( 'NONE',  ( 10.00000000000000000, 0.02000000000000000000, -1.201684671663340200E-015 ) ) ;
#209 = PLANE ( 'NONE',  #87 ) ;
#210 = CARTESIAN_POINT ( 'NONE',  ( 10.00000000000000000, 0.02000000000000000000, -0.6250000000000012200 ) ) ;
#211 = DIRECTION ( 'NONE',  ( -1.000000000000000000, 0.0000000000000000000, 0.0000000000000000000 ) ) ;
ENDSEC;
END-ISO-10303-21;
