ISO-10303-21;
HEADER;
FILE_DESCRIPTION (( 'STEP AP214' ),
    '1' );
FILE_NAME ('T250B.step',
    '2012-04-20T21:07:24',
    ( '' ),
    ( '' ),
    'SwSTEP 2.0',
    'SolidWorks 2012',
    '' );
FILE_SCHEMA (( 'AUTOMOTIVE_DESIGN' ));
ENDSEC;

DATA;
#1 =( LENGTH_UNIT ( ) NAMED_UNIT ( * ) SI_UNIT ( $, .METRE. ) );
#2 =( CONVERSION_BASED_UNIT ( 'INCH', #129 ) LENGTH_UNIT ( ) NAMED_UNIT ( #66 ) );
#3 =( NAMED_UNIT ( * ) PLANE_ANGLE_UNIT ( ) SI_UNIT ( $, .RADIAN. ) );
#4 =( NAMED_UNIT ( * ) SI_UNIT ( $, .STERADIAN. ) SOLID_ANGLE_UNIT ( ) );
#5 = CARTESIAN_POINT ( 'NONE',  ( 0.05450000000000000000, 6.674325055353074800E-018, 0.2500000000000000000 ) ) ;
#6 = CARTESIAN_POINT ( 'NONE',  ( -0.05450000000000000000, 0.0000000000000000000, 0.2500000000000000000 ) ) ;
#7 = CARTESIAN_POINT ( 'NONE',  ( 0.05450000000000000000, 6.674325055353074800E-018, 0.0000000000000000000 ) ) ;
#8 = CARTESIAN_POINT ( 'NONE',  ( 0.1250000000000000600, 1.530808498934192100E-017, 0.2500000000000000000 ) ) ;
#9 = CARTESIAN_POINT ( 'NONE',  ( -0.1250000000000000600, 0.0000000000000000000, 0.2500000000000000000 ) ) ;
#10 = CARTESIAN_POINT ( 'NONE',  ( -0.05450000000000000000, 0.0000000000000000000, 0.0000000000000000000 ) ) ;
#11 = CARTESIAN_POINT ( 'NONE',  ( -0.1250000000000000600, 0.0000000000000000000, 0.0000000000000000000 ) ) ;
#12 =( LENGTH_UNIT ( ) NAMED_UNIT ( * ) SI_UNIT ( $, .METRE. ) );
#13 =( CONVERSION_BASED_UNIT ( 'INCH', #131 ) LENGTH_UNIT ( ) NAMED_UNIT ( #65 ) );
#14 =( NAMED_UNIT ( * ) PLANE_ANGLE_UNIT ( ) SI_UNIT ( $, .RADIAN. ) );
#15 =( NAMED_UNIT ( * ) SI_UNIT ( $, .STERADIAN. ) SOLID_ANGLE_UNIT ( ) );
#16 = APPLICATION_PROTOCOL_DEFINITION ( 'draft international standard', 'automotive_design', 1998, #201 ) ;
#17 = FILL_AREA_STYLE_COLOUR ( '', #35 ) ;
#18 = FILL_AREA_STYLE ('',( #17 ) ) ;
#19 = SURFACE_STYLE_FILL_AREA ( #18 ) ;
#20 = SURFACE_SIDE_STYLE ('',( #19 ) ) ;
#21 = SURFACE_STYLE_USAGE ( .BOTH. , #20 ) ;
#22 = PRESENTATION_STYLE_ASSIGNMENT (( #21 ) ) ;
#23 =( LENGTH_UNIT ( ) NAMED_UNIT ( * ) SI_UNIT ( $, .METRE. ) );
#24 =( CONVERSION_BASED_UNIT ( 'INCH', #183 ) LENGTH_UNIT ( ) NAMED_UNIT ( #64 ) );
#25 =( NAMED_UNIT ( * ) PLANE_ANGLE_UNIT ( ) SI_UNIT ( $, .RADIAN. ) );
#26 =( NAMED_UNIT ( * ) SI_UNIT ( $, .STERADIAN. ) SOLID_ANGLE_UNIT ( ) );
#27 = CARTESIAN_POINT ( 'NONE',  ( 0.0000000000000000000, 0.0000000000000000000, 0.0000000000000000000 ) ) ;
#28 = DIRECTION ( 'NONE',  ( 0.0000000000000000000, 0.0000000000000000000, 1.000000000000000000 ) ) ;
#29 = DIRECTION ( 'NONE',  ( 1.000000000000000000, 0.0000000000000000000, 0.0000000000000000000 ) ) ;
#30 = SHAPE_DEFINITION_REPRESENTATION ( #87, #114 ) ;
#31 = PRODUCT_CONTEXT ( 'NONE', #201, 'mechanical' ) ;
#32 = APPLICATION_PROTOCOL_DEFINITION ( 'draft international standard', 'automotive_design', 1998, #202 ) ;
#33 = PRODUCT_DEFINITION ( 'UNKNOWN', '', #134, #86 ) ;
#34 = CIRCLE ( 'NONE', #77, 0.1250000000000000600 ) ;
#35 = COLOUR_RGB ( '',0.5686274509803921400, 0.5686274509803921400, 0.5882352941176470800 ) ;
#36 = COLOUR_RGB ( '',0.5686274509803921400, 0.5686274509803921400, 0.5882352941176470800 ) ;
#37 = CIRCLE ( 'NONE', #133, 0.05450000000000000000 ) ;
#38 = CIRCLE ( 'NONE', #130, 0.05450000000000000000 ) ;
#39 = CIRCLE ( 'NONE', #194, 0.05450000000000000000 ) ;
#40 = CIRCLE ( 'NONE', #191, 0.1250000000000000600 ) ;
#41 = EDGE_CURVE ( 'NONE', #96, #98, #95, .T. ) ;
#42 = CIRCLE ( 'NONE', #85, 0.1250000000000000600 ) ;
#43 = CIRCLE ( 'NONE', #82, 0.1250000000000000600 ) ;
#44 = CIRCLE ( 'NONE', #83, 0.05450000000000000000 ) ;
#45 = ADVANCED_FACE ( 'NONE', ( #177 ), #179, .F. ) ;
#46 = PRODUCT_RELATED_PRODUCT_CATEGORY ( 'part', '', ( #67 ) ) ;
#47 = ADVANCED_FACE ( 'NONE', ( #176 ), #181, .T. ) ;
#48 = ADVANCED_FACE ( 'NONE', ( #185, #175 ), #205, .T. ) ;
#49 = ADVANCED_FACE ( 'NONE', ( #75, #182 ), #209, .F. ) ;
#50 = ADVANCED_FACE ( 'NONE', ( #72 ), #70, .T. ) ;
#51 = ADVANCED_FACE ( 'NONE', ( #71 ), #84, .F. ) ;
#52 = EDGE_CURVE ( 'NONE', #103, #101, #34, .T. ) ;
#53 = EDGE_CURVE ( 'NONE', #96, #97, #44, .T. ) ;
#54 = EDGE_CURVE ( 'NONE', #100, #99, #43, .T. ) ;
#55 = EDGE_CURVE ( 'NONE', #100, #103, #195, .T. ) ;
#56 = EDGE_CURVE ( 'NONE', #101, #103, #42, .T. ) ;
#57 = EDGE_CURVE ( 'NONE', #99, #100, #40, .T. ) ;
#58 = EDGE_CURVE ( 'NONE', #99, #101, #142, .T. ) ;
#59 = EDGE_CURVE ( 'NONE', #97, #102, #139, .T. ) ;
#60 = EDGE_CURVE ( 'NONE', #102, #98, #39, .T. ) ;
#61 = EDGE_CURVE ( 'NONE', #97, #96, #38, .T. ) ;
#62 = EDGE_CURVE ( 'NONE', #98, #102, #37, .T. ) ;
#63 = MECHANICAL_DESIGN_GEOMETRIC_PRESENTATION_REPRESENTATION (  '', ( #117 ), #188 ) ;
#64 = DIMENSIONAL_EXPONENTS ( 1.000000000000000000, 0.0000000000000000000, 0.0000000000000000000, 0.0000000000000000000, 0.0000000000000000000, 0.0000000000000000000, 0.0000000000000000000 ) ;
#65 = DIMENSIONAL_EXPONENTS ( 1.000000000000000000, 0.0000000000000000000, 0.0000000000000000000, 0.0000000000000000000, 0.0000000000000000000, 0.0000000000000000000, 0.0000000000000000000 ) ;
#66 = DIMENSIONAL_EXPONENTS ( 1.000000000000000000, 0.0000000000000000000, 0.0000000000000000000, 0.0000000000000000000, 0.0000000000000000000, 0.0000000000000000000, 0.0000000000000000000 ) ;
#67 = PRODUCT ( 'T250B', 'T250B', '', ( #31 ) ) ;
#68 = PRESENTATION_STYLE_ASSIGNMENT (( #69 ) ) ;
#69 = SURFACE_STYLE_USAGE ( .BOTH. , #119 ) ;
#70 = CYLINDRICAL_SURFACE ( 'NONE', #74, 0.1250000000000000600 ) ;
#71 = FACE_OUTER_BOUND ( 'NONE', #158, .T. ) ;
#72 = FACE_OUTER_BOUND ( 'NONE', #157, .T. ) ;
#73 = AXIS2_PLACEMENT_3D ( 'NONE', #210, #211, #212 ) ;
#74 = AXIS2_PLACEMENT_3D ( 'NONE', #213, #214, #215 ) ;
#75 = FACE_OUTER_BOUND ( 'NONE', #155, .T. ) ;
#76 = AXIS2_PLACEMENT_3D ( 'NONE', #206, #207, #208 ) ;
#77 = AXIS2_PLACEMENT_3D ( 'NONE', #219, #220, #221 ) ;
#78 = DIRECTION ( 'NONE',  ( 1.000000000000000000, 0.0000000000000000000, 0.0000000000000000000 ) ) ;
#79 = DIRECTION ( 'NONE',  ( 0.0000000000000000000, 0.0000000000000000000, 1.000000000000000000 ) ) ;
#80 = CARTESIAN_POINT ( 'NONE',  ( 0.0000000000000000000, 0.0000000000000000000, 0.2500000000000000000 ) ) ;
#81 = AXIS2_PLACEMENT_3D ( 'NONE', #216, #217, #218 ) ;
#82 = AXIS2_PLACEMENT_3D ( 'NONE', #199, #198, #197 ) ;
#83 = AXIS2_PLACEMENT_3D ( 'NONE', #222, #223, #200 ) ;
#84 = CYLINDRICAL_SURFACE ( 'NONE', #81, 0.05450000000000000000 ) ;
#85 = AXIS2_PLACEMENT_3D ( 'NONE', #196, #149, #148 ) ;
#86 = PRODUCT_DEFINITION_CONTEXT ( 'detailed design', #202, 'design' ) ;
#87 = PRODUCT_DEFINITION_SHAPE ( 'NONE', 'NONE',  #33 ) ;
#88 = MANIFOLD_SOLID_BREP ( 'Boss-Extrude1', #178 ) ;
#89 = CARTESIAN_POINT ( 'NONE',  ( 0.0000000000000000000, 0.0000000000000000000, 0.2500000000000000000 ) ) ;
#90 = DIRECTION ( 'NONE',  ( -1.000000000000000000, 0.0000000000000000000, 0.0000000000000000000 ) ) ;
#91 = DIRECTION ( 'NONE',  ( -0.0000000000000000000, -0.0000000000000000000, -1.000000000000000000 ) ) ;
#92 = CARTESIAN_POINT ( 'NONE',  ( 0.0000000000000000000, 0.0000000000000000000, 0.2500000000000000000 ) ) ;
#93 = DIRECTION ( 'NONE',  ( -0.0000000000000000000, -0.0000000000000000000, -1.000000000000000000 ) ) ;
#94 = CARTESIAN_POINT ( 'NONE',  ( 0.05450000000000000000, 6.674325055353074800E-018, 0.2500000000000000000 ) ) ;
#95 = LINE ( 'NONE', #94, #180 ) ;
#96 = VERTEX_POINT ( 'NONE', #5 ) ;
#97 = VERTEX_POINT ( 'NONE', #6 ) ;
#98 = VERTEX_POINT ( 'NONE', #7 ) ;
#99 = VERTEX_POINT ( 'NONE', #8 ) ;
#100 = VERTEX_POINT ( 'NONE', #9 ) ;
#101 = VERTEX_POINT ( 'NONE', #123 ) ;
#102 = VERTEX_POINT ( 'NONE', #10 ) ;
#103 = VERTEX_POINT ( 'NONE', #11 ) ;
#104 = ORIENTED_EDGE ( 'NONE', *, *, #54, .F. ) ;
#105 = ORIENTED_EDGE ( 'NONE', *, *, #52, .T. ) ;
#106 = ORIENTED_EDGE ( 'NONE', *, *, #58, .F. ) ;
#107 = ORIENTED_EDGE ( 'NONE', *, *, #41, .F. ) ;
#108 = ORIENTED_EDGE ( 'NONE', *, *, #53, .T. ) ;
#109 = ORIENTED_EDGE ( 'NONE', *, *, #62, .F. ) ;
#110 = ORIENTED_EDGE ( 'NONE', *, *, #59, .T. ) ;
#111 = ORIENTED_EDGE ( 'NONE', *, *, #55, .T. ) ;
#112 = EDGE_LOOP ( 'NONE', ( #165, #162 ) ) ;
#113 = UNCERTAINTY_MEASURE_WITH_UNIT (LENGTH_MEASURE( 1.000000000000000100E-005 ), #2, 'distance_accuracy_value', 'NONE');
#114 = ADVANCED_BREP_SHAPE_REPRESENTATION ( 'T250B', ( #88, #146 ), #189 ) ;
#115 = UNCERTAINTY_MEASURE_WITH_UNIT (LENGTH_MEASURE( 1.000000000000000100E-005 ), #24, 'distance_accuracy_value', 'NONE');
#116 = UNCERTAINTY_MEASURE_WITH_UNIT (LENGTH_MEASURE( 1.000000000000000100E-005 ), #13, 'distance_accuracy_value', 'NONE');
#117 = STYLED_ITEM ( 'NONE', ( #22 ), #114 ) ;
#118 = PRESENTATION_LAYER_ASSIGNMENT (  '', '', ( #117 ) ) ;
#119 = SURFACE_SIDE_STYLE ('',( #120 ) ) ;
#120 = SURFACE_STYLE_FILL_AREA ( #121 ) ;
#121 = FILL_AREA_STYLE ('',( #122 ) ) ;
#122 = FILL_AREA_STYLE_COLOUR ( '', #36 ) ;
#123 = CARTESIAN_POINT ( 'NONE',  ( 0.1250000000000000600, 1.530808498934192100E-017, 0.0000000000000000000 ) ) ;
#124 = DIRECTION ( 'NONE',  ( 1.000000000000000000, 0.0000000000000000000, 0.0000000000000000000 ) ) ;
#125 = DIRECTION ( 'NONE',  ( 0.0000000000000000000, 0.0000000000000000000, 1.000000000000000000 ) ) ;
#126 = CARTESIAN_POINT ( 'NONE',  ( 0.0000000000000000000, 0.0000000000000000000, 0.0000000000000000000 ) ) ;
#127 = MECHANICAL_DESIGN_GEOMETRIC_PRESENTATION_REPRESENTATION (  '', ( #190 ), #187 ) ;
#128 = PRESENTATION_LAYER_ASSIGNMENT (  '', '', ( #190 ) ) ;
#129 = LENGTH_MEASURE_WITH_UNIT ( LENGTH_MEASURE( 0.02539999999999999900 ), #1 );
#130 = AXIS2_PLACEMENT_3D ( 'NONE', #80, #79, #78 ) ;
#131 = LENGTH_MEASURE_WITH_UNIT ( LENGTH_MEASURE( 0.02539999999999999900 ), #12 );
#132 = VECTOR ( 'NONE', #137, 39.37007874015748100 ) ;
#133 = AXIS2_PLACEMENT_3D ( 'NONE', #126, #125, #124 ) ;
#134 = PRODUCT_DEFINITION_FORMATION_WITH_SPECIFIED_SOURCE ( 'ANY', '', #67, .NOT_KNOWN. ) ;
#135 = DIRECTION ( 'NONE',  ( 1.000000000000000000, 0.0000000000000000000, 0.0000000000000000000 ) ) ;
#136 = DIRECTION ( 'NONE',  ( 0.0000000000000000000, 0.0000000000000000000, 1.000000000000000000 ) ) ;
#137 = DIRECTION ( 'NONE',  ( -0.0000000000000000000, -0.0000000000000000000, -1.000000000000000000 ) ) ;
#138 = CARTESIAN_POINT ( 'NONE',  ( -0.05450000000000000000, 0.0000000000000000000, 0.2500000000000000000 ) ) ;
#139 = LINE ( 'NONE', #138, #132 ) ;
#140 = DIRECTION ( 'NONE',  ( -0.0000000000000000000, -0.0000000000000000000, -1.000000000000000000 ) ) ;
#141 = CARTESIAN_POINT ( 'NONE',  ( 0.1250000000000000600, 1.530808498934192100E-017, 0.2500000000000000000 ) ) ;
#142 = LINE ( 'NONE', #141, #192 ) ;
#143 = CARTESIAN_POINT ( 'NONE',  ( 0.0000000000000000000, 0.0000000000000000000, 0.0000000000000000000 ) ) ;
#144 = DIRECTION ( 'NONE',  ( 1.000000000000000000, 0.0000000000000000000, 0.0000000000000000000 ) ) ;
#145 = DIRECTION ( 'NONE',  ( 0.0000000000000000000, 0.0000000000000000000, 1.000000000000000000 ) ) ;
#146 = AXIS2_PLACEMENT_3D ( 'NONE', #27, #28, #29 ) ;
#147 = CARTESIAN_POINT ( 'NONE',  ( 0.0000000000000000000, 0.0000000000000000000, 0.2500000000000000000 ) ) ;
#148 = DIRECTION ( 'NONE',  ( 1.000000000000000000, 0.0000000000000000000, 0.0000000000000000000 ) ) ;
#149 = DIRECTION ( 'NONE',  ( 0.0000000000000000000, 0.0000000000000000000, 1.000000000000000000 ) ) ;
#150 = DIRECTION ( 'NONE',  ( -0.0000000000000000000, -0.0000000000000000000, -1.000000000000000000 ) ) ;
#151 = CARTESIAN_POINT ( 'NONE',  ( -0.1250000000000000600, 0.0000000000000000000, 0.2500000000000000000 ) ) ;
#152 = EDGE_LOOP ( 'NONE', ( #173, #171, #172, #170 ) ) ;
#153 = EDGE_LOOP ( 'NONE', ( #169, #167, #168, #166 ) ) ;
#154 = EDGE_LOOP ( 'NONE', ( #164, #161 ) ) ;
#155 = EDGE_LOOP ( 'NONE', ( #163, #159 ) ) ;
#156 = EDGE_LOOP ( 'NONE', ( #160, #174 ) ) ;
#157 = EDGE_LOOP ( 'NONE', ( #106, #104, #111, #105 ) ) ;
#158 = EDGE_LOOP ( 'NONE', ( #107, #108, #110, #109 ) ) ;
#159 = ORIENTED_EDGE ( 'NONE', *, *, #56, .F. ) ;
#160 = ORIENTED_EDGE ( 'NONE', *, *, #60, .T. ) ;
#161 = ORIENTED_EDGE ( 'NONE', *, *, #53, .F. ) ;
#162 = ORIENTED_EDGE ( 'NONE', *, *, #57, .T. ) ;
#163 = ORIENTED_EDGE ( 'NONE', *, *, #52, .F. ) ;
#164 = ORIENTED_EDGE ( 'NONE', *, *, #61, .F. ) ;
#165 = ORIENTED_EDGE ( 'NONE', *, *, #54, .T. ) ;
#166 = ORIENTED_EDGE ( 'NONE', *, *, #55, .F. ) ;
#167 = ORIENTED_EDGE ( 'NONE', *, *, #58, .T. ) ;
#168 = ORIENTED_EDGE ( 'NONE', *, *, #56, .T. ) ;
#169 = ORIENTED_EDGE ( 'NONE', *, *, #57, .F. ) ;
#170 = ORIENTED_EDGE ( 'NONE', *, *, #59, .F. ) ;
#171 = ORIENTED_EDGE ( 'NONE', *, *, #41, .T. ) ;
#172 = ORIENTED_EDGE ( 'NONE', *, *, #60, .F. ) ;
#173 = ORIENTED_EDGE ( 'NONE', *, *, #61, .T. ) ;
#174 = ORIENTED_EDGE ( 'NONE', *, *, #62, .T. ) ;
#175 = FACE_BOUND ( 'NONE', #154, .T. ) ;
#176 = FACE_OUTER_BOUND ( 'NONE', #153, .T. ) ;
#177 = FACE_OUTER_BOUND ( 'NONE', #152, .T. ) ;
#178 = CLOSED_SHELL ( 'NONE', ( #45, #47, #48, #49, #50, #51 ) ) ;
#179 = CYLINDRICAL_SURFACE ( 'NONE', #184, 0.05450000000000000000 ) ;
#180 = VECTOR ( 'NONE', #93, 39.37007874015748100 ) ;
#181 = CYLINDRICAL_SURFACE ( 'NONE', #186, 0.1250000000000000600 ) ;
#182 = FACE_BOUND ( 'NONE', #156, .T. ) ;
#183 = LENGTH_MEASURE_WITH_UNIT ( LENGTH_MEASURE( 0.02539999999999999900 ), #23 );
#184 = AXIS2_PLACEMENT_3D ( 'NONE', #92, #91, #90 ) ;
#185 = FACE_OUTER_BOUND ( 'NONE', #112, .T. ) ;
#186 = AXIS2_PLACEMENT_3D ( 'NONE', #89, #203, #204 ) ;
#187 =( GEOMETRIC_REPRESENTATION_CONTEXT ( 3 ) GLOBAL_UNCERTAINTY_ASSIGNED_CONTEXT ( ( #113 ) ) GLOBAL_UNIT_ASSIGNED_CONTEXT ( ( #2, #3, #4 ) ) REPRESENTATION_CONTEXT ( 'NONE', 'WORKASPACE' ) );
#188 =( GEOMETRIC_REPRESENTATION_CONTEXT ( 3 ) GLOBAL_UNCERTAINTY_ASSIGNED_CONTEXT ( ( #115 ) ) GLOBAL_UNIT_ASSIGNED_CONTEXT ( ( #24, #25, #26 ) ) REPRESENTATION_CONTEXT ( 'NONE', 'WORKASPACE' ) );
#189 =( GEOMETRIC_REPRESENTATION_CONTEXT ( 3 ) GLOBAL_UNCERTAINTY_ASSIGNED_CONTEXT ( ( #116 ) ) GLOBAL_UNIT_ASSIGNED_CONTEXT ( ( #13, #14, #15 ) ) REPRESENTATION_CONTEXT ( 'NONE', 'WORKASPACE' ) );
#190 = STYLED_ITEM ( 'NONE', ( #68 ), #88 ) ;
#191 = AXIS2_PLACEMENT_3D ( 'NONE', #147, #145, #144 ) ;
#192 = VECTOR ( 'NONE', #140, 39.37007874015748100 ) ;
#193 = VECTOR ( 'NONE', #150, 39.37007874015748100 ) ;
#194 = AXIS2_PLACEMENT_3D ( 'NONE', #143, #136, #135 ) ;
#195 = LINE ( 'NONE', #151, #193 ) ;
#196 = CARTESIAN_POINT ( 'NONE',  ( 0.0000000000000000000, 0.0000000000000000000, 0.0000000000000000000 ) ) ;
#197 = DIRECTION ( 'NONE',  ( 1.000000000000000000, 0.0000000000000000000, 0.0000000000000000000 ) ) ;
#198 = DIRECTION ( 'NONE',  ( 0.0000000000000000000, 0.0000000000000000000, 1.000000000000000000 ) ) ;
#199 = CARTESIAN_POINT ( 'NONE',  ( 0.0000000000000000000, 0.0000000000000000000, 0.2500000000000000000 ) ) ;
#200 = DIRECTION ( 'NONE',  ( 1.000000000000000000, 0.0000000000000000000, 0.0000000000000000000 ) ) ;
#201 = APPLICATION_CONTEXT ( 'automotive_design' ) ;
#202 = APPLICATION_CONTEXT ( 'automotive_design' ) ;
#203 = DIRECTION ( 'NONE',  ( -0.0000000000000000000, -0.0000000000000000000, -1.000000000000000000 ) ) ;
#204 = DIRECTION ( 'NONE',  ( -1.000000000000000000, 0.0000000000000000000, 0.0000000000000000000 ) ) ;
#205 = PLANE ( 'NONE',  #76 ) ;
#206 = CARTESIAN_POINT ( 'NONE',  ( 0.0000000000000000000, 0.0000000000000000000, 0.2500000000000000000 ) ) ;
#207 = DIRECTION ( 'NONE',  ( 0.0000000000000000000, 0.0000000000000000000, 1.000000000000000000 ) ) ;
#208 = DIRECTION ( 'NONE',  ( 1.000000000000000000, 0.0000000000000000000, -0.0000000000000000000 ) ) ;
#209 = PLANE ( 'NONE',  #73 ) ;
#210 = CARTESIAN_POINT ( 'NONE',  ( 0.0000000000000000000, 0.0000000000000000000, 0.0000000000000000000 ) ) ;
#211 = DIRECTION ( 'NONE',  ( 0.0000000000000000000, 0.0000000000000000000, 1.000000000000000000 ) ) ;
#212 = DIRECTION ( 'NONE',  ( 1.000000000000000000, 0.0000000000000000000, -0.0000000000000000000 ) ) ;
#213 = CARTESIAN_POINT ( 'NONE',  ( 0.0000000000000000000, 0.0000000000000000000, 0.2500000000000000000 ) ) ;
#214 = DIRECTION ( 'NONE',  ( -0.0000000000000000000, -0.0000000000000000000, -1.000000000000000000 ) ) ;
#215 = DIRECTION ( 'NONE',  ( -1.000000000000000000, 0.0000000000000000000, 0.0000000000000000000 ) ) ;
#216 = CARTESIAN_POINT ( 'NONE',  ( 0.0000000000000000000, 0.0000000000000000000, 0.2500000000000000000 ) ) ;
#217 = DIRECTION ( 'NONE',  ( -0.0000000000000000000, -0.0000000000000000000, -1.000000000000000000 ) ) ;
#218 = DIRECTION ( 'NONE',  ( -1.000000000000000000, 0.0000000000000000000, 0.0000000000000000000 ) ) ;
#219 = CARTESIAN_POINT ( 'NONE',  ( 0.0000000000000000000, 0.0000000000000000000, 0.0000000000000000000 ) ) ;
#220 = DIRECTION ( 'NONE',  ( 0.0000000000000000000, 0.0000000000000000000, 1.000000000000000000 ) ) ;
#221 = DIRECTION ( 'NONE',  ( 1.000000000000000000, 0.0000000000000000000, 0.0000000000000000000 ) ) ;
#222 = CARTESIAN_POINT ( 'NONE',  ( 0.0000000000000000000, 0.0000000000000000000, 0.2500000000000000000 ) ) ;
#223 = DIRECTION ( 'NONE',  ( 0.0000000000000000000, 0.0000000000000000000, 1.000000000000000000 ) ) ;
ENDSEC;
END-ISO-10303-21;
