ISO-10303-21;
HEADER;
FILE_DESCRIPTION (( 'STEP AP214' ),
    '1' );
FILE_NAME ('T500D-DM.step',
    '2012-04-20T21:07:26',
    ( '' ),
    ( '' ),
    'SwSTEP 2.0',
    'SolidWorks 2012',
    '' );
FILE_SCHEMA (( 'AUTOMOTIVE_DESIGN' ));
ENDSEC;

DATA;
#1 = COLOUR_RGB ( '',0.5686274509803921400, 0.5686274509803921400, 0.5882352941176470800 ) ;
#2 = CIRCLE ( 'NONE', #44, 0.2500000000000000000 ) ;
#3 = PRODUCT_RELATED_PRODUCT_CATEGORY ( 'part', '', ( #35 ) ) ;
#4 = PRODUCT_DEFINITION ( 'UNKNOWN', '', #97, #51 ) ;
#5 = CIRCLE ( 'NONE', #189, 0.1300000000000000000 ) ;
#6 = COLOUR_RGB ( '',0.5686274509803921400, 0.5686274509803921400, 0.5882352941176470800 ) ;
#7 = CIRCLE ( 'NONE', #186, 0.2500000000000000000 ) ;
#8 = CIRCLE ( 'NONE', #47, 0.2500000000000000000 ) ;
#9 = CIRCLE ( 'NONE', #190, 0.2500000000000000000 ) ;
#10 = CIRCLE ( 'NONE', #45, 0.1300000000000000000 ) ;
#11 = CIRCLE ( 'NONE', #187, 0.1300000000000000000 ) ;
#12 = CIRCLE ( 'NONE', #181, 0.1300000000000000000 ) ;
#13 = ADVANCED_FACE ( 'NONE', ( #179 ), #175, .T. ) ;
#14 = ADVANCED_FACE ( 'NONE', ( #176, #183 ), #213, .T. ) ;
#15 = ADVANCED_FACE ( 'NONE', ( #182, #185 ), #209, .F. ) ;
#16 = ADVANCED_FACE ( 'NONE', ( #177 ), #40, .T. ) ;
#17 = ADVANCED_FACE ( 'NONE', ( #178 ), #37, .F. ) ;
#18 = EDGE_CURVE ( 'NONE', #218, #221, #142, .T. ) ;
#19 = EDGE_CURVE ( 'NONE', #222, #83, #138, .T. ) ;
#20 = EDGE_CURVE ( 'NONE', #221, #219, #12, .T. ) ;
#21 = EDGE_CURVE ( 'NONE', #220, #223, #132, .T. ) ;
#22 = EDGE_CURVE ( 'NONE', #220, #222, #2, .T. ) ;
#23 = EDGE_CURVE ( 'NONE', #219, #221, #11, .T. ) ;
#24 = EDGE_CURVE ( 'NONE', #217, #218, #10, .T. ) ;
#25 = EDGE_CURVE ( 'NONE', #83, #223, #9, .T. ) ;
#26 = EDGE_CURVE ( 'NONE', #222, #220, #8, .T. ) ;
#27 = EDGE_CURVE ( 'NONE', #223, #83, #7, .T. ) ;
#28 = EDGE_CURVE ( 'NONE', #218, #217, #5, .T. ) ;
#29 = ADVANCED_FACE ( 'NONE', ( #96 ), #191, .F. ) ;
#30 = EDGE_CURVE ( 'NONE', #217, #219, #53, .T. ) ;
#31 = LENGTH_MEASURE_WITH_UNIT ( LENGTH_MEASURE( 0.02539999999999999900 ), #109 );
#32 = MECHANICAL_DESIGN_GEOMETRIC_PRESENTATION_REPRESENTATION (  '', ( #82 ), #146 ) ;
#33 = DIMENSIONAL_EXPONENTS ( 1.000000000000000000, 0.0000000000000000000, 0.0000000000000000000, 0.0000000000000000000, 0.0000000000000000000, 0.0000000000000000000, 0.0000000000000000000 ) ;
#34 = DIMENSIONAL_EXPONENTS ( 1.000000000000000000, 0.0000000000000000000, 0.0000000000000000000, 0.0000000000000000000, 0.0000000000000000000, 0.0000000000000000000, 0.0000000000000000000 ) ;
#35 = PRODUCT ( 'T500D-DM', 'T500D-DM', '', ( #128 ) ) ;
#36 = DIMENSIONAL_EXPONENTS ( 1.000000000000000000, 0.0000000000000000000, 0.0000000000000000000, 0.0000000000000000000, 0.0000000000000000000, 0.0000000000000000000, 0.0000000000000000000 ) ;
#37 = CYLINDRICAL_SURFACE ( 'NONE', #38, 0.1300000000000000000 ) ;
#38 = AXIS2_PLACEMENT_3D ( 'NONE', #145, #144, #143 ) ;
#39 = AXIS2_PLACEMENT_3D ( 'NONE', #205, #204, #203 ) ;
#40 = CYLINDRICAL_SURFACE ( 'NONE', #39, 0.2500000000000000000 ) ;
#41 = SURFACE_SIDE_STYLE ('',( #42 ) ) ;
#42 = SURFACE_STYLE_FILL_AREA ( #43 ) ;
#43 = FILL_AREA_STYLE ('',( #150 ) ) ;
#44 = AXIS2_PLACEMENT_3D ( 'NONE', #133, #76, #75 ) ;
#45 = AXIS2_PLACEMENT_3D ( 'NONE', #71, #70, #69 ) ;
#46 = VECTOR ( 'NONE', #136, 39.37007874015748100 ) ;
#47 = AXIS2_PLACEMENT_3D ( 'NONE', #65, #64, #63 ) ;
#48 = VECTOR ( 'NONE', #140, 39.37007874015748100 ) ;
#49 = VECTOR ( 'NONE', #130, 39.37007874015748100 ) ;
#50 = MANIFOLD_SOLID_BREP ( 'Boss-Extrude1', #180 ) ;
#51 = PRODUCT_DEFINITION_CONTEXT ( 'detailed design', #201, 'design' ) ;
#52 = PRODUCT_DEFINITION_SHAPE ( 'NONE', 'NONE',  #4 ) ;
#53 = LINE ( 'NONE', #153, #92 ) ;
#54 = DIRECTION ( 'NONE',  ( -1.000000000000000000, 0.0000000000000000000, 0.0000000000000000000 ) ) ;
#55 = DIRECTION ( 'NONE',  ( -0.0000000000000000000, -0.0000000000000000000, -1.000000000000000000 ) ) ;
#56 = CARTESIAN_POINT ( 'NONE',  ( 0.0000000000000000000, 0.0000000000000000000, 0.5000000000000000000 ) ) ;
#57 = DIRECTION ( 'NONE',  ( 1.000000000000000000, 0.0000000000000000000, 0.0000000000000000000 ) ) ;
#58 = DIRECTION ( 'NONE',  ( 0.0000000000000000000, 0.0000000000000000000, 1.000000000000000000 ) ) ;
#59 = CARTESIAN_POINT ( 'NONE',  ( 0.0000000000000000000, 0.0000000000000000000, 0.5000000000000000000 ) ) ;
#60 = DIRECTION ( 'NONE',  ( 1.000000000000000000, 0.0000000000000000000, 0.0000000000000000000 ) ) ;
#61 = DIRECTION ( 'NONE',  ( 0.0000000000000000000, 0.0000000000000000000, 1.000000000000000000 ) ) ;
#62 = CARTESIAN_POINT ( 'NONE',  ( 0.0000000000000000000, 0.0000000000000000000, 0.0000000000000000000 ) ) ;
#63 = DIRECTION ( 'NONE',  ( 1.000000000000000000, 0.0000000000000000000, 0.0000000000000000000 ) ) ;
#64 = DIRECTION ( 'NONE',  ( 0.0000000000000000000, 0.0000000000000000000, 1.000000000000000000 ) ) ;
#65 = CARTESIAN_POINT ( 'NONE',  ( 0.0000000000000000000, 0.0000000000000000000, 0.5000000000000000000 ) ) ;
#66 = DIRECTION ( 'NONE',  ( 1.000000000000000000, 0.0000000000000000000, 0.0000000000000000000 ) ) ;
#67 = DIRECTION ( 'NONE',  ( 0.0000000000000000000, 0.0000000000000000000, 1.000000000000000000 ) ) ;
#68 = CARTESIAN_POINT ( 'NONE',  ( 0.0000000000000000000, 0.0000000000000000000, 0.0000000000000000000 ) ) ;
#69 = DIRECTION ( 'NONE',  ( 1.000000000000000000, 0.0000000000000000000, 0.0000000000000000000 ) ) ;
#70 = DIRECTION ( 'NONE',  ( 0.0000000000000000000, 0.0000000000000000000, 1.000000000000000000 ) ) ;
#71 = CARTESIAN_POINT ( 'NONE',  ( 0.0000000000000000000, 0.0000000000000000000, 0.5000000000000000000 ) ) ;
#72 = DIRECTION ( 'NONE',  ( 1.000000000000000000, 0.0000000000000000000, 0.0000000000000000000 ) ) ;
#73 = DIRECTION ( 'NONE',  ( 0.0000000000000000000, 0.0000000000000000000, 1.000000000000000000 ) ) ;
#74 = CARTESIAN_POINT ( 'NONE',  ( 0.0000000000000000000, 0.0000000000000000000, 0.0000000000000000000 ) ) ;
#75 = DIRECTION ( 'NONE',  ( 1.000000000000000000, 0.0000000000000000000, 0.0000000000000000000 ) ) ;
#76 = DIRECTION ( 'NONE',  ( 0.0000000000000000000, 0.0000000000000000000, 1.000000000000000000 ) ) ;
#77 = UNCERTAINTY_MEASURE_WITH_UNIT (LENGTH_MEASURE( 1.000000000000000100E-005 ), #99, 'distance_accuracy_value', 'NONE');
#78 = ADVANCED_BREP_SHAPE_REPRESENTATION ( 'T500D-DM', ( #50, #94 ), #147 ) ;
#79 = UNCERTAINTY_MEASURE_WITH_UNIT (LENGTH_MEASURE( 1.000000000000000100E-005 ), #121, 'distance_accuracy_value', 'NONE');
#80 = UNCERTAINTY_MEASURE_WITH_UNIT (LENGTH_MEASURE( 1.000000000000000100E-005 ), #110, 'distance_accuracy_value', 'NONE');
#81 = PRESENTATION_LAYER_ASSIGNMENT (  '', '', ( #82 ) ) ;
#82 = STYLED_ITEM ( 'NONE', ( #119 ), #78 ) ;
#83 = VERTEX_POINT ( 'NONE', #102 ) ;
#84 = EDGE_LOOP ( 'NONE', ( #160, #159 ) ) ;
#85 = EDGE_LOOP ( 'NONE', ( #172, #196, #197, #198 ) ) ;
#86 = EDGE_LOOP ( 'NONE', ( #195, #154, #199, #163 ) ) ;
#87 = EDGE_LOOP ( 'NONE', ( #162, #161 ) ) ;
#88 = EDGE_LOOP ( 'NONE', ( #168, #158 ) ) ;
#89 = EDGE_LOOP ( 'NONE', ( #156, #166 ) ) ;
#90 = EDGE_LOOP ( 'NONE', ( #157, #164, #167, #165 ) ) ;
#91 = MECHANICAL_DESIGN_GEOMETRIC_PRESENTATION_REPRESENTATION (  '', ( #93 ), #148 ) ;
#92 = VECTOR ( 'NONE', #152, 39.37007874015748100 ) ;
#93 = STYLED_ITEM ( 'NONE', ( #193 ), #50 ) ;
#94 = AXIS2_PLACEMENT_3D ( 'NONE', #124, #125, #126 ) ;
#95 = PRESENTATION_LAYER_ASSIGNMENT (  '', '', ( #93 ) ) ;
#96 = FACE_OUTER_BOUND ( 'NONE', #85, .T. ) ;
#97 = PRODUCT_DEFINITION_FORMATION_WITH_SPECIFIED_SOURCE ( 'ANY', '', #35, .NOT_KNOWN. ) ;
#98 =( LENGTH_UNIT ( ) NAMED_UNIT ( * ) SI_UNIT ( $, .METRE. ) );
#99 =( CONVERSION_BASED_UNIT ( 'INCH', #202 ) LENGTH_UNIT ( ) NAMED_UNIT ( #33 ) );
#100 =( NAMED_UNIT ( * ) PLANE_ANGLE_UNIT ( ) SI_UNIT ( $, .RADIAN. ) );
#101 =( NAMED_UNIT ( * ) SI_UNIT ( $, .STERADIAN. ) SOLID_ANGLE_UNIT ( ) );
#102 = CARTESIAN_POINT ( 'NONE',  ( -0.2500000000000000000, 0.0000000000000000000, 0.0000000000000000000 ) ) ;
#103 = CARTESIAN_POINT ( 'NONE',  ( -0.1300000000000000000, 0.0000000000000000000, 0.5000000000000000000 ) ) ;
#104 = CARTESIAN_POINT ( 'NONE',  ( 0.1300000000000000000, 1.592040838891559300E-017, 0.0000000000000000000 ) ) ;
#105 = CARTESIAN_POINT ( 'NONE',  ( 0.2500000000000000000, 3.061616997868383000E-017, 0.5000000000000000000 ) ) ;
#106 = CARTESIAN_POINT ( 'NONE',  ( -0.1300000000000000000, 0.0000000000000000000, 0.0000000000000000000 ) ) ;
#107 = CARTESIAN_POINT ( 'NONE',  ( -0.2500000000000000000, 0.0000000000000000000, 0.5000000000000000000 ) ) ;
#108 = CARTESIAN_POINT ( 'NONE',  ( 0.2500000000000000000, 3.061616997868383000E-017, 0.0000000000000000000 ) ) ;
#109 =( LENGTH_UNIT ( ) NAMED_UNIT ( * ) SI_UNIT ( $, .METRE. ) );
#110 =( CONVERSION_BASED_UNIT ( 'INCH', #31 ) LENGTH_UNIT ( ) NAMED_UNIT ( #36 ) );
#111 =( NAMED_UNIT ( * ) PLANE_ANGLE_UNIT ( ) SI_UNIT ( $, .RADIAN. ) );
#112 =( NAMED_UNIT ( * ) SI_UNIT ( $, .STERADIAN. ) SOLID_ANGLE_UNIT ( ) );
#113 = APPLICATION_PROTOCOL_DEFINITION ( 'draft international standard', 'automotive_design', 1998, #200 ) ;
#114 = FILL_AREA_STYLE_COLOUR ( '', #6 ) ;
#115 = FILL_AREA_STYLE ('',( #114 ) ) ;
#116 = SURFACE_STYLE_FILL_AREA ( #115 ) ;
#117 = SURFACE_SIDE_STYLE ('',( #116 ) ) ;
#118 = SURFACE_STYLE_USAGE ( .BOTH. , #117 ) ;
#119 = PRESENTATION_STYLE_ASSIGNMENT (( #118 ) ) ;
#120 =( LENGTH_UNIT ( ) NAMED_UNIT ( * ) SI_UNIT ( $, .METRE. ) );
#121 =( CONVERSION_BASED_UNIT ( 'INCH', #149 ) LENGTH_UNIT ( ) NAMED_UNIT ( #34 ) );
#122 =( NAMED_UNIT ( * ) PLANE_ANGLE_UNIT ( ) SI_UNIT ( $, .RADIAN. ) );
#123 =( NAMED_UNIT ( * ) SI_UNIT ( $, .STERADIAN. ) SOLID_ANGLE_UNIT ( ) );
#124 = CARTESIAN_POINT ( 'NONE',  ( 0.0000000000000000000, 0.0000000000000000000, 0.0000000000000000000 ) ) ;
#125 = DIRECTION ( 'NONE',  ( 0.0000000000000000000, 0.0000000000000000000, 1.000000000000000000 ) ) ;
#126 = DIRECTION ( 'NONE',  ( 1.000000000000000000, 0.0000000000000000000, 0.0000000000000000000 ) ) ;
#127 = SHAPE_DEFINITION_REPRESENTATION ( #52, #78 ) ;
#128 = PRODUCT_CONTEXT ( 'NONE', #200, 'mechanical' ) ;
#129 = APPLICATION_PROTOCOL_DEFINITION ( 'draft international standard', 'automotive_design', 1998, #201 ) ;
#130 = DIRECTION ( 'NONE',  ( -0.0000000000000000000, -0.0000000000000000000, -1.000000000000000000 ) ) ;
#131 = CARTESIAN_POINT ( 'NONE',  ( 0.2500000000000000000, 3.061616997868383000E-017, 0.5000000000000000000 ) ) ;
#132 = LINE ( 'NONE', #131, #49 ) ;
#133 = CARTESIAN_POINT ( 'NONE',  ( 0.0000000000000000000, 0.0000000000000000000, 0.5000000000000000000 ) ) ;
#134 = DIRECTION ( 'NONE',  ( 1.000000000000000000, 0.0000000000000000000, 0.0000000000000000000 ) ) ;
#135 = DIRECTION ( 'NONE',  ( 0.0000000000000000000, 0.0000000000000000000, 1.000000000000000000 ) ) ;
#136 = DIRECTION ( 'NONE',  ( -0.0000000000000000000, -0.0000000000000000000, -1.000000000000000000 ) ) ;
#137 = CARTESIAN_POINT ( 'NONE',  ( -0.2500000000000000000, 0.0000000000000000000, 0.5000000000000000000 ) ) ;
#138 = LINE ( 'NONE', #137, #46 ) ;
#139 = CARTESIAN_POINT ( 'NONE',  ( 0.0000000000000000000, 0.0000000000000000000, 0.0000000000000000000 ) ) ;
#140 = DIRECTION ( 'NONE',  ( -0.0000000000000000000, -0.0000000000000000000, -1.000000000000000000 ) ) ;
#141 = CARTESIAN_POINT ( 'NONE',  ( -0.1300000000000000000, 0.0000000000000000000, 0.5000000000000000000 ) ) ;
#142 = LINE ( 'NONE', #141, #48 ) ;
#143 = DIRECTION ( 'NONE',  ( -1.000000000000000000, 0.0000000000000000000, 0.0000000000000000000 ) ) ;
#144 = DIRECTION ( 'NONE',  ( -0.0000000000000000000, -0.0000000000000000000, -1.000000000000000000 ) ) ;
#145 = CARTESIAN_POINT ( 'NONE',  ( 0.0000000000000000000, 0.0000000000000000000, 0.5000000000000000000 ) ) ;
#146 =( GEOMETRIC_REPRESENTATION_CONTEXT ( 3 ) GLOBAL_UNCERTAINTY_ASSIGNED_CONTEXT ( ( #79 ) ) GLOBAL_UNIT_ASSIGNED_CONTEXT ( ( #121, #122, #123 ) ) REPRESENTATION_CONTEXT ( 'NONE', 'WORKASPACE' ) );
#147 =( GEOMETRIC_REPRESENTATION_CONTEXT ( 3 ) GLOBAL_UNCERTAINTY_ASSIGNED_CONTEXT ( ( #80 ) ) GLOBAL_UNIT_ASSIGNED_CONTEXT ( ( #110, #111, #112 ) ) REPRESENTATION_CONTEXT ( 'NONE', 'WORKASPACE' ) );
#148 =( GEOMETRIC_REPRESENTATION_CONTEXT ( 3 ) GLOBAL_UNCERTAINTY_ASSIGNED_CONTEXT ( ( #77 ) ) GLOBAL_UNIT_ASSIGNED_CONTEXT ( ( #99, #100, #101 ) ) REPRESENTATION_CONTEXT ( 'NONE', 'WORKASPACE' ) );
#149 = LENGTH_MEASURE_WITH_UNIT ( LENGTH_MEASURE( 0.02539999999999999900 ), #120 );
#150 = FILL_AREA_STYLE_COLOUR ( '', #1 ) ;
#151 = CARTESIAN_POINT ( 'NONE',  ( 0.1300000000000000000, 1.592040838891559300E-017, 0.5000000000000000000 ) ) ;
#152 = DIRECTION ( 'NONE',  ( -0.0000000000000000000, -0.0000000000000000000, -1.000000000000000000 ) ) ;
#153 = CARTESIAN_POINT ( 'NONE',  ( 0.1300000000000000000, 1.592040838891559300E-017, 0.5000000000000000000 ) ) ;
#154 = ORIENTED_EDGE ( 'NONE', *, *, #21, .T. ) ;
#155 = ORIENTED_EDGE ( 'NONE', *, *, #23, .F. ) ;
#156 = ORIENTED_EDGE ( 'NONE', *, *, #20, .T. ) ;
#157 = ORIENTED_EDGE ( 'NONE', *, *, #21, .F. ) ;
#158 = ORIENTED_EDGE ( 'NONE', *, *, #27, .F. ) ;
#159 = ORIENTED_EDGE ( 'NONE', *, *, #22, .T. ) ;
#160 = ORIENTED_EDGE ( 'NONE', *, *, #26, .T. ) ;
#161 = ORIENTED_EDGE ( 'NONE', *, *, #24, .F. ) ;
#162 = ORIENTED_EDGE ( 'NONE', *, *, #28, .F. ) ;
#163 = ORIENTED_EDGE ( 'NONE', *, *, #19, .F. ) ;
#164 = ORIENTED_EDGE ( 'NONE', *, *, #26, .F. ) ;
#165 = ORIENTED_EDGE ( 'NONE', *, *, #25, .T. ) ;
#166 = ORIENTED_EDGE ( 'NONE', *, *, #23, .T. ) ;
#167 = ORIENTED_EDGE ( 'NONE', *, *, #19, .T. ) ;
#168 = ORIENTED_EDGE ( 'NONE', *, *, #25, .F. ) ;
#169 = ORIENTED_EDGE ( 'NONE', *, *, #30, .F. ) ;
#170 = ORIENTED_EDGE ( 'NONE', *, *, #24, .T. ) ;
#171 = ORIENTED_EDGE ( 'NONE', *, *, #18, .T. ) ;
#172 = ORIENTED_EDGE ( 'NONE', *, *, #28, .T. ) ;
#173 = AXIS2_PLACEMENT_3D ( 'NONE', #212, #211, #210 ) ;
#174 = AXIS2_PLACEMENT_3D ( 'NONE', #216, #215, #214 ) ;
#175 = CYLINDRICAL_SURFACE ( 'NONE', #174, 0.2500000000000000000 ) ;
#176 = FACE_OUTER_BOUND ( 'NONE', #84, .T. ) ;
#177 = FACE_OUTER_BOUND ( 'NONE', #90, .T. ) ;
#178 = FACE_OUTER_BOUND ( 'NONE', #194, .T. ) ;
#179 = FACE_OUTER_BOUND ( 'NONE', #86, .T. ) ;
#180 = CLOSED_SHELL ( 'NONE', ( #29, #13, #14, #15, #16, #17 ) ) ;
#181 = AXIS2_PLACEMENT_3D ( 'NONE', #139, #135, #134 ) ;
#182 = FACE_OUTER_BOUND ( 'NONE', #88, .T. ) ;
#183 = FACE_BOUND ( 'NONE', #87, .T. ) ;
#184 = AXIS2_PLACEMENT_3D ( 'NONE', #208, #207, #206 ) ;
#185 = FACE_BOUND ( 'NONE', #89, .T. ) ;
#186 = AXIS2_PLACEMENT_3D ( 'NONE', #62, #61, #60 ) ;
#187 = AXIS2_PLACEMENT_3D ( 'NONE', #74, #73, #72 ) ;
#188 = AXIS2_PLACEMENT_3D ( 'NONE', #56, #55, #54 ) ;
#189 = AXIS2_PLACEMENT_3D ( 'NONE', #59, #58, #57 ) ;
#190 = AXIS2_PLACEMENT_3D ( 'NONE', #68, #67, #66 ) ;
#191 = CYLINDRICAL_SURFACE ( 'NONE', #188, 0.1300000000000000000 ) ;
#192 = SURFACE_STYLE_USAGE ( .BOTH. , #41 ) ;
#193 = PRESENTATION_STYLE_ASSIGNMENT (( #192 ) ) ;
#194 = EDGE_LOOP ( 'NONE', ( #169, #170, #171, #155 ) ) ;
#195 = ORIENTED_EDGE ( 'NONE', *, *, #22, .F. ) ;
#196 = ORIENTED_EDGE ( 'NONE', *, *, #30, .T. ) ;
#197 = ORIENTED_EDGE ( 'NONE', *, *, #20, .F. ) ;
#198 = ORIENTED_EDGE ( 'NONE', *, *, #18, .F. ) ;
#199 = ORIENTED_EDGE ( 'NONE', *, *, #27, .T. ) ;
#200 = APPLICATION_CONTEXT ( 'automotive_design' ) ;
#201 = APPLICATION_CONTEXT ( 'automotive_design' ) ;
#202 = LENGTH_MEASURE_WITH_UNIT ( LENGTH_MEASURE( 0.02539999999999999900 ), #98 );
#203 = DIRECTION ( 'NONE',  ( -1.000000000000000000, 0.0000000000000000000, 0.0000000000000000000 ) ) ;
#204 = DIRECTION ( 'NONE',  ( -0.0000000000000000000, -0.0000000000000000000, -1.000000000000000000 ) ) ;
#205 = CARTESIAN_POINT ( 'NONE',  ( 0.0000000000000000000, 0.0000000000000000000, 0.5000000000000000000 ) ) ;
#206 = DIRECTION ( 'NONE',  ( 1.000000000000000000, 0.0000000000000000000, -0.0000000000000000000 ) ) ;
#207 = DIRECTION ( 'NONE',  ( 0.0000000000000000000, 0.0000000000000000000, 1.000000000000000000 ) ) ;
#208 = CARTESIAN_POINT ( 'NONE',  ( 0.0000000000000000000, 0.0000000000000000000, 0.0000000000000000000 ) ) ;
#209 = PLANE ( 'NONE',  #184 ) ;
#210 = DIRECTION ( 'NONE',  ( 1.000000000000000000, 0.0000000000000000000, -0.0000000000000000000 ) ) ;
#211 = DIRECTION ( 'NONE',  ( 0.0000000000000000000, 0.0000000000000000000, 1.000000000000000000 ) ) ;
#212 = CARTESIAN_POINT ( 'NONE',  ( 0.0000000000000000000, 0.0000000000000000000, 0.5000000000000000000 ) ) ;
#213 = PLANE ( 'NONE',  #173 ) ;
#214 = DIRECTION ( 'NONE',  ( -1.000000000000000000, 0.0000000000000000000, 0.0000000000000000000 ) ) ;
#215 = DIRECTION ( 'NONE',  ( -0.0000000000000000000, -0.0000000000000000000, -1.000000000000000000 ) ) ;
#216 = CARTESIAN_POINT ( 'NONE',  ( 0.0000000000000000000, 0.0000000000000000000, 0.5000000000000000000 ) ) ;
#217 = VERTEX_POINT ( 'NONE', #151 ) ;
#218 = VERTEX_POINT ( 'NONE', #103 ) ;
#219 = VERTEX_POINT ( 'NONE', #104 ) ;
#220 = VERTEX_POINT ( 'NONE', #105 ) ;
#221 = VERTEX_POINT ( 'NONE', #106 ) ;
#222 = VERTEX_POINT ( 'NONE', #107 ) ;
#223 = VERTEX_POINT ( 'NONE', #108 ) ;
ENDSEC;
END-ISO-10303-21;
