ISO-10303-21;
HEADER;
FILE_DESCRIPTION (( 'STEP AP214' ),
    '1' );
FILE_NAME ('T500D.step',
    '2012-04-20T21:07:28',
    ( '' ),
    ( '' ),
    'SwSTEP 2.0',
    'SolidWorks 2012',
    '' );
FILE_SCHEMA (( 'AUTOMOTIVE_DESIGN' ));
ENDSEC;

DATA;
#1 = PRODUCT_DEFINITION_FORMATION_WITH_SPECIFIED_SOURCE ( 'ANY', '', #37, .NOT_KNOWN. ) ;
#2 = UNCERTAINTY_MEASURE_WITH_UNIT (LENGTH_MEASURE( 1.000000000000000100E-005 ), #97, 'distance_accuracy_value', 'NONE');
#3 = CIRCLE ( 'NONE', #48, 0.2500000000000000000 ) ;
#4 = COLOUR_RGB ( '',0.5686274509803921400, 0.5686274509803921400, 0.5882352941176470800 ) ;
#5 = CIRCLE ( 'NONE', #43, 0.2500000000000000000 ) ;
#6 = COLOUR_RGB ( '',0.5686274509803921400, 0.5686274509803921400, 0.5882352941176470800 ) ;
#7 = CIRCLE ( 'NONE', #197, 0.1300000000000000000 ) ;
#8 = CIRCLE ( 'NONE', #198, 0.1300000000000000000 ) ;
#9 = CIRCLE ( 'NONE', #46, 0.1300000000000000000 ) ;
#10 = CIRCLE ( 'NONE', #45, 0.2500000000000000000 ) ;
#11 = CIRCLE ( 'NONE', #190, 0.1300000000000000000 ) ;
#12 = CIRCLE ( 'NONE', #176, 0.2500000000000000000 ) ;
#13 = ADVANCED_FACE ( 'NONE', ( #184 ), #182, .T. ) ;
#14 = ADVANCED_FACE ( 'NONE', ( #183, #172 ), #54, .T. ) ;
#15 = ADVANCED_FACE ( 'NONE', ( #171, #173 ), #222, .F. ) ;
#16 = ADVANCED_FACE ( 'NONE', ( #177 ), #178, .T. ) ;
#17 = ADVANCED_FACE ( 'NONE', ( #181 ), #189, .F. ) ;
#18 = EDGE_CURVE ( 'NONE', #63, #62, #12, .T. ) ;
#19 = EDGE_CURVE ( 'NONE', #59, #60, #208, .T. ) ;
#20 = EDGE_CURVE ( 'NONE', #62, #64, #205, .T. ) ;
#21 = EDGE_CURVE ( 'NONE', #64, #58, #3, .T. ) ;
#22 = EDGE_CURVE ( 'NONE', #61, #59, #11, .T. ) ;
#23 = EDGE_CURVE ( 'NONE', #63, #58, #82, .T. ) ;
#24 = EDGE_CURVE ( 'NONE', #58, #64, #10, .T. ) ;
#25 = EDGE_CURVE ( 'NONE', #59, #61, #9, .T. ) ;
#26 = EDGE_CURVE ( 'NONE', #60, #65, #8, .T. ) ;
#27 = EDGE_CURVE ( 'NONE', #65, #60, #7, .T. ) ;
#28 = EDGE_CURVE ( 'NONE', #61, #65, #130, .T. ) ;
#29 = ADVANCED_FACE ( 'NONE', ( #196 ), #193, .F. ) ;
#30 = PRODUCT_DEFINITION ( 'UNKNOWN', '', #1, #51 ) ;
#31 = EDGE_CURVE ( 'NONE', #62, #63, #5, .T. ) ;
#32 = PRODUCT_RELATED_PRODUCT_CATEGORY ( 'part', '', ( #37 ) ) ;
#33 = STYLED_ITEM ( 'NONE', ( #117 ), #77 ) ;
#34 = DIMENSIONAL_EXPONENTS ( 1.000000000000000000, 0.0000000000000000000, 0.0000000000000000000, 0.0000000000000000000, 0.0000000000000000000, 0.0000000000000000000, 0.0000000000000000000 ) ;
#35 = DIMENSIONAL_EXPONENTS ( 1.000000000000000000, 0.0000000000000000000, 0.0000000000000000000, 0.0000000000000000000, 0.0000000000000000000, 0.0000000000000000000, 0.0000000000000000000 ) ;
#36 = DIMENSIONAL_EXPONENTS ( 1.000000000000000000, 0.0000000000000000000, 0.0000000000000000000, 0.0000000000000000000, 0.0000000000000000000, 0.0000000000000000000, 0.0000000000000000000 ) ;
#37 = PRODUCT ( 'T500D', 'T500D', '', ( #126 ) ) ;
#38 = SURFACE_SIDE_STYLE ('',( #199 ) ) ;
#39 = SURFACE_STYLE_USAGE ( .BOTH. , #38 ) ;
#40 = FILL_AREA_STYLE_COLOUR ( '', #6 ) ;
#41 = CARTESIAN_POINT ( 'NONE',  ( -0.2500000000000000000, 0.0000000000000000000, 0.5000000000000000000 ) ) ;
#42 = DIRECTION ( 'NONE',  ( 1.000000000000000000, 0.0000000000000000000, 0.0000000000000000000 ) ) ;
#43 = AXIS2_PLACEMENT_3D ( 'NONE', #146, #145, #42 ) ;
#44 = VECTOR ( 'NONE', #144, 39.37007874015748100 ) ;
#45 = AXIS2_PLACEMENT_3D ( 'NONE', #83, #143, #142 ) ;
#46 = AXIS2_PLACEMENT_3D ( 'NONE', #141, #140, #138 ) ;
#47 = VECTOR ( 'NONE', #203, 39.37007874015748100 ) ;
#48 = AXIS2_PLACEMENT_3D ( 'NONE', #209, #88, #87 ) ;
#49 = PRODUCT_DEFINITION_SHAPE ( 'NONE', 'NONE',  #30 ) ;
#50 = MANIFOLD_SOLID_BREP ( 'Boss-Extrude1', #185 ) ;
#51 = PRODUCT_DEFINITION_CONTEXT ( 'detailed design', #201, 'design' ) ;
#52 = DIRECTION ( 'NONE',  ( 0.0000000000000000000, 0.0000000000000000000, 1.000000000000000000 ) ) ;
#53 = CARTESIAN_POINT ( 'NONE',  ( 0.0000000000000000000, 0.0000000000000000000, 0.5000000000000000000 ) ) ;
#54 = PLANE ( 'NONE',  #174 ) ;
#55 = DIRECTION ( 'NONE',  ( -1.000000000000000000, 0.0000000000000000000, 0.0000000000000000000 ) ) ;
#56 = DIRECTION ( 'NONE',  ( -0.0000000000000000000, -0.0000000000000000000, -1.000000000000000000 ) ) ;
#57 = CARTESIAN_POINT ( 'NONE',  ( 0.0000000000000000000, 0.0000000000000000000, 0.5000000000000000000 ) ) ;
#58 = VERTEX_POINT ( 'NONE', #100 ) ;
#59 = VERTEX_POINT ( 'NONE', #101 ) ;
#60 = VERTEX_POINT ( 'NONE', #102 ) ;
#61 = VERTEX_POINT ( 'NONE', #103 ) ;
#62 = VERTEX_POINT ( 'NONE', #104 ) ;
#63 = VERTEX_POINT ( 'NONE', #41 ) ;
#64 = VERTEX_POINT ( 'NONE', #105 ) ;
#65 = VERTEX_POINT ( 'NONE', #106 ) ;
#66 = ORIENTED_EDGE ( 'NONE', *, *, #19, .F. ) ;
#67 = ORIENTED_EDGE ( 'NONE', *, *, #28, .T. ) ;
#68 = ORIENTED_EDGE ( 'NONE', *, *, #18, .F. ) ;
#69 = ORIENTED_EDGE ( 'NONE', *, *, #26, .F. ) ;
#70 = ORIENTED_EDGE ( 'NONE', *, *, #23, .T. ) ;
#71 = ORIENTED_EDGE ( 'NONE', *, *, #24, .T. ) ;
#72 = ORIENTED_EDGE ( 'NONE', *, *, #25, .T. ) ;
#73 = ORIENTED_EDGE ( 'NONE', *, *, #20, .F. ) ;
#74 = EDGE_LOOP ( 'NONE', ( #170, #157, #168, #158 ) ) ;
#75 = EDGE_LOOP ( 'NONE', ( #163, #162 ) ) ;
#76 = UNCERTAINTY_MEASURE_WITH_UNIT (LENGTH_MEASURE( 1.000000000000000100E-005 ), #119, 'distance_accuracy_value', 'NONE');
#77 = ADVANCED_BREP_SHAPE_REPRESENTATION ( 'T500D', ( #50, #94 ), #187 ) ;
#78 = UNCERTAINTY_MEASURE_WITH_UNIT (LENGTH_MEASURE( 1.000000000000000100E-005 ), #108, 'distance_accuracy_value', 'NONE');
#79 = MECHANICAL_DESIGN_GEOMETRIC_PRESENTATION_REPRESENTATION (  '', ( #33 ), #186 ) ;
#80 = PRESENTATION_LAYER_ASSIGNMENT (  '', '', ( #33 ) ) ;
#81 = CARTESIAN_POINT ( 'NONE',  ( -0.2500000000000000000, 0.0000000000000000000, 0.5000000000000000000 ) ) ;
#82 = LINE ( 'NONE', #81, #44 ) ;
#83 = CARTESIAN_POINT ( 'NONE',  ( 0.0000000000000000000, 0.0000000000000000000, 0.0000000000000000000 ) ) ;
#84 = DIRECTION ( 'NONE',  ( 1.000000000000000000, 0.0000000000000000000, 0.0000000000000000000 ) ) ;
#85 = DIRECTION ( 'NONE',  ( 0.0000000000000000000, 0.0000000000000000000, 1.000000000000000000 ) ) ;
#86 = CARTESIAN_POINT ( 'NONE',  ( 0.0000000000000000000, 0.0000000000000000000, 0.5000000000000000000 ) ) ;
#87 = DIRECTION ( 'NONE',  ( 1.000000000000000000, 0.0000000000000000000, 0.0000000000000000000 ) ) ;
#88 = DIRECTION ( 'NONE',  ( 0.0000000000000000000, 0.0000000000000000000, 1.000000000000000000 ) ) ;
#89 = LENGTH_MEASURE_WITH_UNIT ( LENGTH_MEASURE( 0.02539999999999999900 ), #96 );
#90 = MECHANICAL_DESIGN_GEOMETRIC_PRESENTATION_REPRESENTATION (  '', ( #93 ), #188 ) ;
#91 = LENGTH_MEASURE_WITH_UNIT ( LENGTH_MEASURE( 0.02539999999999999900 ), #107 );
#92 = PRESENTATION_LAYER_ASSIGNMENT (  '', '', ( #93 ) ) ;
#93 = STYLED_ITEM ( 'NONE', ( #95 ), #50 ) ;
#94 = AXIS2_PLACEMENT_3D ( 'NONE', #122, #123, #124 ) ;
#95 = PRESENTATION_STYLE_ASSIGNMENT (( #39 ) ) ;
#96 =( LENGTH_UNIT ( ) NAMED_UNIT ( * ) SI_UNIT ( $, .METRE. ) );
#97 =( CONVERSION_BASED_UNIT ( 'INCH', #89 ) LENGTH_UNIT ( ) NAMED_UNIT ( #34 ) );
#98 =( NAMED_UNIT ( * ) PLANE_ANGLE_UNIT ( ) SI_UNIT ( $, .RADIAN. ) );
#99 =( NAMED_UNIT ( * ) SI_UNIT ( $, .STERADIAN. ) SOLID_ANGLE_UNIT ( ) );
#100 = CARTESIAN_POINT ( 'NONE',  ( -0.2500000000000000000, 0.0000000000000000000, 0.0000000000000000000 ) ) ;
#101 = CARTESIAN_POINT ( 'NONE',  ( 0.1300000000000000000, 1.592040838891559300E-017, 0.5000000000000000000 ) ) ;
#102 = CARTESIAN_POINT ( 'NONE',  ( 0.1300000000000000000, 1.592040838891559300E-017, 0.0000000000000000000 ) ) ;
#103 = CARTESIAN_POINT ( 'NONE',  ( -0.1300000000000000000, 0.0000000000000000000, 0.5000000000000000000 ) ) ;
#104 = CARTESIAN_POINT ( 'NONE',  ( 0.2500000000000000000, 3.061616997868383000E-017, 0.5000000000000000000 ) ) ;
#105 = CARTESIAN_POINT ( 'NONE',  ( 0.2500000000000000000, 3.061616997868383000E-017, 0.0000000000000000000 ) ) ;
#106 = CARTESIAN_POINT ( 'NONE',  ( -0.1300000000000000000, 0.0000000000000000000, 0.0000000000000000000 ) ) ;
#107 =( LENGTH_UNIT ( ) NAMED_UNIT ( * ) SI_UNIT ( $, .METRE. ) );
#108 =( CONVERSION_BASED_UNIT ( 'INCH', #91 ) LENGTH_UNIT ( ) NAMED_UNIT ( #36 ) );
#109 =( NAMED_UNIT ( * ) PLANE_ANGLE_UNIT ( ) SI_UNIT ( $, .RADIAN. ) );
#110 =( NAMED_UNIT ( * ) SI_UNIT ( $, .STERADIAN. ) SOLID_ANGLE_UNIT ( ) );
#111 = APPLICATION_PROTOCOL_DEFINITION ( 'draft international standard', 'automotive_design', 1998, #202 ) ;
#112 = FILL_AREA_STYLE_COLOUR ( '', #4 ) ;
#113 = FILL_AREA_STYLE ('',( #112 ) ) ;
#114 = SURFACE_STYLE_FILL_AREA ( #113 ) ;
#115 = SURFACE_SIDE_STYLE ('',( #114 ) ) ;
#116 = SURFACE_STYLE_USAGE ( .BOTH. , #115 ) ;
#117 = PRESENTATION_STYLE_ASSIGNMENT (( #116 ) ) ;
#118 =( LENGTH_UNIT ( ) NAMED_UNIT ( * ) SI_UNIT ( $, .METRE. ) );
#119 =( CONVERSION_BASED_UNIT ( 'INCH', #139 ) LENGTH_UNIT ( ) NAMED_UNIT ( #35 ) );
#120 =( NAMED_UNIT ( * ) PLANE_ANGLE_UNIT ( ) SI_UNIT ( $, .RADIAN. ) );
#121 =( NAMED_UNIT ( * ) SI_UNIT ( $, .STERADIAN. ) SOLID_ANGLE_UNIT ( ) );
#122 = CARTESIAN_POINT ( 'NONE',  ( 0.0000000000000000000, 0.0000000000000000000, 0.0000000000000000000 ) ) ;
#123 = DIRECTION ( 'NONE',  ( 0.0000000000000000000, 0.0000000000000000000, 1.000000000000000000 ) ) ;
#124 = DIRECTION ( 'NONE',  ( 1.000000000000000000, 0.0000000000000000000, 0.0000000000000000000 ) ) ;
#125 = SHAPE_DEFINITION_REPRESENTATION ( #49, #77 ) ;
#126 = PRODUCT_CONTEXT ( 'NONE', #202, 'mechanical' ) ;
#127 = APPLICATION_PROTOCOL_DEFINITION ( 'draft international standard', 'automotive_design', 1998, #201 ) ;
#128 = DIRECTION ( 'NONE',  ( -0.0000000000000000000, -0.0000000000000000000, -1.000000000000000000 ) ) ;
#129 = CARTESIAN_POINT ( 'NONE',  ( -0.1300000000000000000, 0.0000000000000000000, 0.5000000000000000000 ) ) ;
#130 = LINE ( 'NONE', #129, #194 ) ;
#131 = CARTESIAN_POINT ( 'NONE',  ( 0.0000000000000000000, 0.0000000000000000000, 0.5000000000000000000 ) ) ;
#132 = DIRECTION ( 'NONE',  ( 1.000000000000000000, 0.0000000000000000000, 0.0000000000000000000 ) ) ;
#133 = DIRECTION ( 'NONE',  ( 0.0000000000000000000, 0.0000000000000000000, 1.000000000000000000 ) ) ;
#134 = CARTESIAN_POINT ( 'NONE',  ( 0.0000000000000000000, 0.0000000000000000000, 0.0000000000000000000 ) ) ;
#135 = DIRECTION ( 'NONE',  ( 1.000000000000000000, 0.0000000000000000000, 0.0000000000000000000 ) ) ;
#136 = DIRECTION ( 'NONE',  ( 0.0000000000000000000, 0.0000000000000000000, 1.000000000000000000 ) ) ;
#137 = CARTESIAN_POINT ( 'NONE',  ( 0.0000000000000000000, 0.0000000000000000000, 0.0000000000000000000 ) ) ;
#138 = DIRECTION ( 'NONE',  ( 1.000000000000000000, 0.0000000000000000000, 0.0000000000000000000 ) ) ;
#139 = LENGTH_MEASURE_WITH_UNIT ( LENGTH_MEASURE( 0.02539999999999999900 ), #118 );
#140 = DIRECTION ( 'NONE',  ( 0.0000000000000000000, 0.0000000000000000000, 1.000000000000000000 ) ) ;
#141 = CARTESIAN_POINT ( 'NONE',  ( 0.0000000000000000000, 0.0000000000000000000, 0.5000000000000000000 ) ) ;
#142 = DIRECTION ( 'NONE',  ( 1.000000000000000000, 0.0000000000000000000, 0.0000000000000000000 ) ) ;
#143 = DIRECTION ( 'NONE',  ( 0.0000000000000000000, 0.0000000000000000000, 1.000000000000000000 ) ) ;
#144 = DIRECTION ( 'NONE',  ( -0.0000000000000000000, -0.0000000000000000000, -1.000000000000000000 ) ) ;
#145 = DIRECTION ( 'NONE',  ( 0.0000000000000000000, 0.0000000000000000000, 1.000000000000000000 ) ) ;
#146 = CARTESIAN_POINT ( 'NONE',  ( 0.0000000000000000000, 0.0000000000000000000, 0.5000000000000000000 ) ) ;
#147 = DIRECTION ( 'NONE',  ( -1.000000000000000000, 0.0000000000000000000, 0.0000000000000000000 ) ) ;
#148 = DIRECTION ( 'NONE',  ( -0.0000000000000000000, -0.0000000000000000000, -1.000000000000000000 ) ) ;
#149 = EDGE_LOOP ( 'NONE', ( #155, #166, #164, #167 ) ) ;
#150 = EDGE_LOOP ( 'NONE', ( #169, #161 ) ) ;
#151 = EDGE_LOOP ( 'NONE', ( #156, #159 ) ) ;
#152 = EDGE_LOOP ( 'NONE', ( #160, #165 ) ) ;
#153 = EDGE_LOOP ( 'NONE', ( #73, #68, #70, #71 ) ) ;
#154 = EDGE_LOOP ( 'NONE', ( #66, #72, #67, #69 ) ) ;
#155 = ORIENTED_EDGE ( 'NONE', *, *, #22, .T. ) ;
#156 = ORIENTED_EDGE ( 'NONE', *, *, #24, .F. ) ;
#157 = ORIENTED_EDGE ( 'NONE', *, *, #20, .T. ) ;
#158 = ORIENTED_EDGE ( 'NONE', *, *, #23, .F. ) ;
#159 = ORIENTED_EDGE ( 'NONE', *, *, #21, .F. ) ;
#160 = ORIENTED_EDGE ( 'NONE', *, *, #27, .T. ) ;
#161 = ORIENTED_EDGE ( 'NONE', *, *, #25, .F. ) ;
#162 = ORIENTED_EDGE ( 'NONE', *, *, #31, .T. ) ;
#163 = ORIENTED_EDGE ( 'NONE', *, *, #18, .T. ) ;
#164 = ORIENTED_EDGE ( 'NONE', *, *, #27, .F. ) ;
#165 = ORIENTED_EDGE ( 'NONE', *, *, #26, .T. ) ;
#166 = ORIENTED_EDGE ( 'NONE', *, *, #19, .T. ) ;
#167 = ORIENTED_EDGE ( 'NONE', *, *, #28, .F. ) ;
#168 = ORIENTED_EDGE ( 'NONE', *, *, #21, .T. ) ;
#169 = ORIENTED_EDGE ( 'NONE', *, *, #22, .F. ) ;
#170 = ORIENTED_EDGE ( 'NONE', *, *, #31, .F. ) ;
#171 = FACE_OUTER_BOUND ( 'NONE', #151, .T. ) ;
#172 = FACE_BOUND ( 'NONE', #150, .T. ) ;
#173 = FACE_BOUND ( 'NONE', #152, .T. ) ;
#174 = AXIS2_PLACEMENT_3D ( 'NONE', #53, #52, #223 ) ;
#175 = AXIS2_PLACEMENT_3D ( 'NONE', #221, #220, #219 ) ;
#176 = AXIS2_PLACEMENT_3D ( 'NONE', #212, #211, #210 ) ;
#177 = FACE_OUTER_BOUND ( 'NONE', #153, .T. ) ;
#178 = CYLINDRICAL_SURFACE ( 'NONE', #179, 0.2500000000000000000 ) ;
#179 = AXIS2_PLACEMENT_3D ( 'NONE', #218, #217, #216 ) ;
#180 = AXIS2_PLACEMENT_3D ( 'NONE', #57, #56, #55 ) ;
#181 = FACE_OUTER_BOUND ( 'NONE', #154, .T. ) ;
#182 = CYLINDRICAL_SURFACE ( 'NONE', #180, 0.2500000000000000000 ) ;
#183 = FACE_OUTER_BOUND ( 'NONE', #75, .T. ) ;
#184 = FACE_OUTER_BOUND ( 'NONE', #74, .T. ) ;
#185 = CLOSED_SHELL ( 'NONE', ( #29, #13, #14, #15, #16, #17 ) ) ;
#186 =( GEOMETRIC_REPRESENTATION_CONTEXT ( 3 ) GLOBAL_UNCERTAINTY_ASSIGNED_CONTEXT ( ( #76 ) ) GLOBAL_UNIT_ASSIGNED_CONTEXT ( ( #119, #120, #121 ) ) REPRESENTATION_CONTEXT ( 'NONE', 'WORKASPACE' ) );
#187 =( GEOMETRIC_REPRESENTATION_CONTEXT ( 3 ) GLOBAL_UNCERTAINTY_ASSIGNED_CONTEXT ( ( #78 ) ) GLOBAL_UNIT_ASSIGNED_CONTEXT ( ( #108, #109, #110 ) ) REPRESENTATION_CONTEXT ( 'NONE', 'WORKASPACE' ) );
#188 =( GEOMETRIC_REPRESENTATION_CONTEXT ( 3 ) GLOBAL_UNCERTAINTY_ASSIGNED_CONTEXT ( ( #2 ) ) GLOBAL_UNIT_ASSIGNED_CONTEXT ( ( #97, #98, #99 ) ) REPRESENTATION_CONTEXT ( 'NONE', 'WORKASPACE' ) );
#189 = CYLINDRICAL_SURFACE ( 'NONE', #191, 0.1300000000000000000 ) ;
#190 = AXIS2_PLACEMENT_3D ( 'NONE', #86, #85, #84 ) ;
#191 = AXIS2_PLACEMENT_3D ( 'NONE', #215, #214, #213 ) ;
#192 = VECTOR ( 'NONE', #206, 39.37007874015748100 ) ;
#193 = CYLINDRICAL_SURFACE ( 'NONE', #195, 0.1300000000000000000 ) ;
#194 = VECTOR ( 'NONE', #128, 39.37007874015748100 ) ;
#195 = AXIS2_PLACEMENT_3D ( 'NONE', #131, #148, #147 ) ;
#196 = FACE_OUTER_BOUND ( 'NONE', #149, .T. ) ;
#197 = AXIS2_PLACEMENT_3D ( 'NONE', #134, #133, #132 ) ;
#198 = AXIS2_PLACEMENT_3D ( 'NONE', #137, #136, #135 ) ;
#199 = SURFACE_STYLE_FILL_AREA ( #200 ) ;
#200 = FILL_AREA_STYLE ('',( #40 ) ) ;
#201 = APPLICATION_CONTEXT ( 'automotive_design' ) ;
#202 = APPLICATION_CONTEXT ( 'automotive_design' ) ;
#203 = DIRECTION ( 'NONE',  ( -0.0000000000000000000, -0.0000000000000000000, -1.000000000000000000 ) ) ;
#204 = CARTESIAN_POINT ( 'NONE',  ( 0.2500000000000000000, 3.061616997868383000E-017, 0.5000000000000000000 ) ) ;
#205 = LINE ( 'NONE', #204, #47 ) ;
#206 = DIRECTION ( 'NONE',  ( -0.0000000000000000000, -0.0000000000000000000, -1.000000000000000000 ) ) ;
#207 = CARTESIAN_POINT ( 'NONE',  ( 0.1300000000000000000, 1.592040838891559300E-017, 0.5000000000000000000 ) ) ;
#208 = LINE ( 'NONE', #207, #192 ) ;
#209 = CARTESIAN_POINT ( 'NONE',  ( 0.0000000000000000000, 0.0000000000000000000, 0.0000000000000000000 ) ) ;
#210 = DIRECTION ( 'NONE',  ( 1.000000000000000000, 0.0000000000000000000, 0.0000000000000000000 ) ) ;
#211 = DIRECTION ( 'NONE',  ( 0.0000000000000000000, 0.0000000000000000000, 1.000000000000000000 ) ) ;
#212 = CARTESIAN_POINT ( 'NONE',  ( 0.0000000000000000000, 0.0000000000000000000, 0.5000000000000000000 ) ) ;
#213 = DIRECTION ( 'NONE',  ( -1.000000000000000000, 0.0000000000000000000, 0.0000000000000000000 ) ) ;
#214 = DIRECTION ( 'NONE',  ( -0.0000000000000000000, -0.0000000000000000000, -1.000000000000000000 ) ) ;
#215 = CARTESIAN_POINT ( 'NONE',  ( 0.0000000000000000000, 0.0000000000000000000, 0.5000000000000000000 ) ) ;
#216 = DIRECTION ( 'NONE',  ( -1.000000000000000000, 0.0000000000000000000, 0.0000000000000000000 ) ) ;
#217 = DIRECTION ( 'NONE',  ( -0.0000000000000000000, -0.0000000000000000000, -1.000000000000000000 ) ) ;
#218 = CARTESIAN_POINT ( 'NONE',  ( 0.0000000000000000000, 0.0000000000000000000, 0.5000000000000000000 ) ) ;
#219 = DIRECTION ( 'NONE',  ( 1.000000000000000000, 0.0000000000000000000, -0.0000000000000000000 ) ) ;
#220 = DIRECTION ( 'NONE',  ( 0.0000000000000000000, 0.0000000000000000000, 1.000000000000000000 ) ) ;
#221 = CARTESIAN_POINT ( 'NONE',  ( 0.0000000000000000000, 0.0000000000000000000, 0.0000000000000000000 ) ) ;
#222 = PLANE ( 'NONE',  #175 ) ;
#223 = DIRECTION ( 'NONE',  ( 1.000000000000000000, 0.0000000000000000000, -0.0000000000000000000 ) ) ;
ENDSEC;
END-ISO-10303-21;
