ISO-10303-21;
HEADER;
FILE_DESCRIPTION (( 'STEP AP214' ),
    '1' );
FILE_NAME ('ZNSD063H.step',
    '2012-04-20T21:08:57',
    ( '' ),
    ( '' ),
    'SwSTEP 2.0',
    'SolidWorks 2012',
    '' );
FILE_SCHEMA (( 'AUTOMOTIVE_DESIGN' ));
ENDSEC;

DATA;
#1 = UNCERTAINTY_MEASURE_WITH_UNIT (LENGTH_MEASURE( 1.000000000000000100E-005 ), #139, 'distance_accuracy_value', 'NONE');
#2 = LENGTH_MEASURE_WITH_UNIT ( LENGTH_MEASURE( 0.02539999999999999900 ), #86 );
#3 = PRESENTATION_LAYER_ASSIGNMENT (  '', '', ( #4 ) ) ;
#4 = STYLED_ITEM ( 'NONE', ( #87 ), #11 ) ;
#5 = LENGTH_MEASURE_WITH_UNIT ( LENGTH_MEASURE( 0.02539999999999999900 ), #97 );
#6 = AXIS2_PLACEMENT_3D ( 'NONE', #106, #105, #102 ) ;
#7 = AXIS2_PLACEMENT_3D ( 'NONE', #109, #108, #107 ) ;
#8 = PRODUCT_DEFINITION_SHAPE ( 'NONE', 'NONE',  #19 ) ;
#9 = MANIFOLD_SOLID_BREP ( 'Boss-Extrude1', #54 ) ;
#10 = PRODUCT_DEFINITION_CONTEXT ( 'detailed design', #77, 'design' ) ;
#11 = ADVANCED_BREP_SHAPE_REPRESENTATION ( 'ZNSD063H', ( #9, #16 ), #38 ) ;
#12 = UNCERTAINTY_MEASURE_WITH_UNIT (LENGTH_MEASURE( 1.000000000000000100E-005 ), #138, 'distance_accuracy_value', 'NONE');
#13 = UNCERTAINTY_MEASURE_WITH_UNIT (LENGTH_MEASURE( 1.000000000000000100E-005 ), #141, 'distance_accuracy_value', 'NONE');
#14 = FACE_OUTER_BOUND ( 'NONE', #75, .T. ) ;
#15 = AXIS2_PLACEMENT_3D ( 'NONE', #128, #127, #126 ) ;
#16 = AXIS2_PLACEMENT_3D ( 'NONE', #94, #93, #92 ) ;
#17 = VECTOR ( 'NONE', #115, 39.37007874015748100 ) ;
#18 = MECHANICAL_DESIGN_GEOMETRIC_PRESENTATION_REPRESENTATION (  '', ( #4 ), #39 ) ;
#19 = PRODUCT_DEFINITION ( 'UNKNOWN', '', #58, #10 ) ;
#20 = CIRCLE ( 'NONE', #48, 0.5000000000000000000 ) ;
#21 = PRODUCT_RELATED_PRODUCT_CATEGORY ( 'part', '', ( #59 ) ) ;
#22 = COLOUR_RGB ( '',0.5686274509803921400, 0.5686274509803921400, 0.5882352941176470800 ) ;
#23 = CIRCLE ( 'NONE', #6, 0.5000000000000000000 ) ;
#24 = CIRCLE ( 'NONE', #7, 0.5000000000000000000 ) ;
#25 = CIRCLE ( 'NONE', #81, 0.5000000000000000000 ) ;
#26 = COLOUR_RGB ( '',0.5686274509803921400, 0.5686274509803921400, 0.5882352941176470800 ) ;
#27 = ADVANCED_FACE ( 'NONE', ( #47 ), #53, .T. ) ;
#28 = ADVANCED_FACE ( 'NONE', ( #52 ), #56, .T. ) ;
#29 = ADVANCED_FACE ( 'NONE', ( #55 ), #129, .T. ) ;
#30 = ADVANCED_FACE ( 'NONE', ( #14 ), #125, .F. ) ;
#31 = EDGE_CURVE ( 'NONE', #148, #149, #20, .T. ) ;
#32 = EDGE_CURVE ( 'NONE', #148, #103, #117, .T. ) ;
#33 = EDGE_CURVE ( 'NONE', #149, #104, #114, .T. ) ;
#34 = EDGE_CURVE ( 'NONE', #104, #103, #25, .T. ) ;
#35 = EDGE_CURVE ( 'NONE', #149, #148, #24, .T. ) ;
#36 = EDGE_CURVE ( 'NONE', #103, #104, #23, .T. ) ;
#37 =( GEOMETRIC_REPRESENTATION_CONTEXT ( 3 ) GLOBAL_UNCERTAINTY_ASSIGNED_CONTEXT ( ( #1 ) ) GLOBAL_UNIT_ASSIGNED_CONTEXT ( ( #139, #85, #137 ) ) REPRESENTATION_CONTEXT ( 'NONE', 'WORKASPACE' ) );
#38 =( GEOMETRIC_REPRESENTATION_CONTEXT ( 3 ) GLOBAL_UNCERTAINTY_ASSIGNED_CONTEXT ( ( #13 ) ) GLOBAL_UNIT_ASSIGNED_CONTEXT ( ( #141, #95, #84 ) ) REPRESENTATION_CONTEXT ( 'NONE', 'WORKASPACE' ) );
#39 =( GEOMETRIC_REPRESENTATION_CONTEXT ( 3 ) GLOBAL_UNCERTAINTY_ASSIGNED_CONTEXT ( ( #12 ) ) GLOBAL_UNIT_ASSIGNED_CONTEXT ( ( #138, #96, #136 ) ) REPRESENTATION_CONTEXT ( 'NONE', 'WORKASPACE' ) );
#40 = SHAPE_DEFINITION_REPRESENTATION ( #8, #11 ) ;
#41 = APPLICATION_PROTOCOL_DEFINITION ( 'draft international standard', 'automotive_design', 1998, #78 ) ;
#42 = PRODUCT_CONTEXT ( 'NONE', #78, 'mechanical' ) ;
#43 = APPLICATION_PROTOCOL_DEFINITION ( 'draft international standard', 'automotive_design', 1998, #77 ) ;
#44 = AXIS2_PLACEMENT_3D ( 'NONE', #124, #123, #122 ) ;
#45 = STYLED_ITEM ( 'NONE', ( #147 ), #9 ) ;
#46 = PRESENTATION_LAYER_ASSIGNMENT (  '', '', ( #45 ) ) ;
#47 = FACE_OUTER_BOUND ( 'NONE', #71, .T. ) ;
#48 = AXIS2_PLACEMENT_3D ( 'NONE', #121, #120, #119 ) ;
#49 = AXIS2_PLACEMENT_3D ( 'NONE', #135, #134, #133 ) ;
#50 = MECHANICAL_DESIGN_GEOMETRIC_PRESENTATION_REPRESENTATION (  '', ( #45 ), #37 ) ;
#51 = LENGTH_MEASURE_WITH_UNIT ( LENGTH_MEASURE( 0.02539999999999999900 ), #140 );
#52 = FACE_OUTER_BOUND ( 'NONE', #74, .T. ) ;
#53 = CYLINDRICAL_SURFACE ( 'NONE', #49, 0.5000000000000000000 ) ;
#54 = CLOSED_SHELL ( 'NONE', ( #27, #28, #29, #30 ) ) ;
#55 = FACE_OUTER_BOUND ( 'NONE', #72, .T. ) ;
#56 = CYLINDRICAL_SURFACE ( 'NONE', #57, 0.5000000000000000000 ) ;
#57 = AXIS2_PLACEMENT_3D ( 'NONE', #132, #131, #130 ) ;
#58 = PRODUCT_DEFINITION_FORMATION_WITH_SPECIFIED_SOURCE ( 'ANY', '', #59, .NOT_KNOWN. ) ;
#59 = PRODUCT ( 'ZNSD063H', 'ZNSD063H', '', ( #42 ) ) ;
#60 = DIMENSIONAL_EXPONENTS ( 1.000000000000000000, 0.0000000000000000000, 0.0000000000000000000, 0.0000000000000000000, 0.0000000000000000000, 0.0000000000000000000, 0.0000000000000000000 ) ;
#61 = ORIENTED_EDGE ( 'NONE', *, *, #33, .F. ) ;
#62 = ORIENTED_EDGE ( 'NONE', *, *, #35, .T. ) ;
#63 = ORIENTED_EDGE ( 'NONE', *, *, #36, .F. ) ;
#64 = ORIENTED_EDGE ( 'NONE', *, *, #34, .T. ) ;
#65 = ORIENTED_EDGE ( 'NONE', *, *, #32, .T. ) ;
#66 = ORIENTED_EDGE ( 'NONE', *, *, #35, .F. ) ;
#67 = ORIENTED_EDGE ( 'NONE', *, *, #34, .F. ) ;
#68 = ORIENTED_EDGE ( 'NONE', *, *, #32, .F. ) ;
#69 = ORIENTED_EDGE ( 'NONE', *, *, #31, .T. ) ;
#70 = ORIENTED_EDGE ( 'NONE', *, *, #33, .T. ) ;
#71 = EDGE_LOOP ( 'NONE', ( #73, #65, #76, #61 ) ) ;
#72 = EDGE_LOOP ( 'NONE', ( #62, #69 ) ) ;
#73 = ORIENTED_EDGE ( 'NONE', *, *, #31, .F. ) ;
#74 = EDGE_LOOP ( 'NONE', ( #68, #66, #70, #64 ) ) ;
#75 = EDGE_LOOP ( 'NONE', ( #67, #63 ) ) ;
#76 = ORIENTED_EDGE ( 'NONE', *, *, #36, .T. ) ;
#77 = APPLICATION_CONTEXT ( 'automotive_design' ) ;
#78 = APPLICATION_CONTEXT ( 'automotive_design' ) ;
#79 = DIMENSIONAL_EXPONENTS ( 1.000000000000000000, 0.0000000000000000000, 0.0000000000000000000, 0.0000000000000000000, 0.0000000000000000000, 0.0000000000000000000, 0.0000000000000000000 ) ;
#80 = DIMENSIONAL_EXPONENTS ( 1.000000000000000000, 0.0000000000000000000, 0.0000000000000000000, 0.0000000000000000000, 0.0000000000000000000, 0.0000000000000000000, 0.0000000000000000000 ) ;
#81 = AXIS2_PLACEMENT_3D ( 'NONE', #118, #111, #110 ) ;
#82 = VECTOR ( 'NONE', #112, 39.37007874015748100 ) ;
#83 = SURFACE_STYLE_USAGE ( .BOTH. , #88 ) ;
#84 =( NAMED_UNIT ( * ) SI_UNIT ( $, .STERADIAN. ) SOLID_ANGLE_UNIT ( ) );
#85 =( NAMED_UNIT ( * ) PLANE_ANGLE_UNIT ( ) SI_UNIT ( $, .RADIAN. ) );
#86 =( LENGTH_UNIT ( ) NAMED_UNIT ( * ) SI_UNIT ( $, .METRE. ) );
#87 = PRESENTATION_STYLE_ASSIGNMENT (( #83 ) ) ;
#88 = SURFACE_SIDE_STYLE ('',( #89 ) ) ;
#89 = SURFACE_STYLE_FILL_AREA ( #90 ) ;
#90 = FILL_AREA_STYLE ('',( #91 ) ) ;
#91 = FILL_AREA_STYLE_COLOUR ( '', #22 ) ;
#92 = DIRECTION ( 'NONE',  ( 1.000000000000000000, 0.0000000000000000000, 0.0000000000000000000 ) ) ;
#93 = DIRECTION ( 'NONE',  ( 0.0000000000000000000, 0.0000000000000000000, 1.000000000000000000 ) ) ;
#94 = CARTESIAN_POINT ( 'NONE',  ( 0.0000000000000000000, 0.0000000000000000000, 0.0000000000000000000 ) ) ;
#95 =( NAMED_UNIT ( * ) PLANE_ANGLE_UNIT ( ) SI_UNIT ( $, .RADIAN. ) );
#96 =( NAMED_UNIT ( * ) PLANE_ANGLE_UNIT ( ) SI_UNIT ( $, .RADIAN. ) );
#97 =( LENGTH_UNIT ( ) NAMED_UNIT ( * ) SI_UNIT ( $, .METRE. ) );
#98 = CARTESIAN_POINT ( 'NONE',  ( 0.0000000000000000000, 0.06250000000000000000, -0.5000000000000000000 ) ) ;
#99 = CARTESIAN_POINT ( 'NONE',  ( 6.123233995736766000E-017, 0.06250000000000000000, 0.5000000000000000000 ) ) ;
#100 = CARTESIAN_POINT ( 'NONE',  ( 0.0000000000000000000, 0.0000000000000000000, -0.5000000000000000000 ) ) ;
#101 = CARTESIAN_POINT ( 'NONE',  ( 6.123233995736766000E-017, 0.0000000000000000000, 0.5000000000000000000 ) ) ;
#102 = DIRECTION ( 'NONE',  ( 0.0000000000000000000, 0.0000000000000000000, 1.000000000000000000 ) ) ;
#103 = VERTEX_POINT ( 'NONE', #101 ) ;
#104 = VERTEX_POINT ( 'NONE', #100 ) ;
#105 = DIRECTION ( 'NONE',  ( 0.0000000000000000000, 1.000000000000000000, 0.0000000000000000000 ) ) ;
#106 = CARTESIAN_POINT ( 'NONE',  ( 0.0000000000000000000, 0.0000000000000000000, 0.0000000000000000000 ) ) ;
#107 = DIRECTION ( 'NONE',  ( 0.0000000000000000000, 0.0000000000000000000, 1.000000000000000000 ) ) ;
#108 = DIRECTION ( 'NONE',  ( 0.0000000000000000000, 1.000000000000000000, 0.0000000000000000000 ) ) ;
#109 = CARTESIAN_POINT ( 'NONE',  ( 0.0000000000000000000, 0.06250000000000000000, 0.0000000000000000000 ) ) ;
#110 = DIRECTION ( 'NONE',  ( 0.0000000000000000000, 0.0000000000000000000, 1.000000000000000000 ) ) ;
#111 = DIRECTION ( 'NONE',  ( 0.0000000000000000000, 1.000000000000000000, 0.0000000000000000000 ) ) ;
#112 = DIRECTION ( 'NONE',  ( -0.0000000000000000000, -1.000000000000000000, -0.0000000000000000000 ) ) ;
#113 = CARTESIAN_POINT ( 'NONE',  ( 0.0000000000000000000, 0.06250000000000000000, -0.5000000000000000000 ) ) ;
#114 = LINE ( 'NONE', #113, #82 ) ;
#115 = DIRECTION ( 'NONE',  ( -0.0000000000000000000, -1.000000000000000000, -0.0000000000000000000 ) ) ;
#116 = CARTESIAN_POINT ( 'NONE',  ( 6.123233995736766000E-017, 0.06250000000000000000, 0.5000000000000000000 ) ) ;
#117 = LINE ( 'NONE', #116, #17 ) ;
#118 = CARTESIAN_POINT ( 'NONE',  ( 0.0000000000000000000, 0.0000000000000000000, 0.0000000000000000000 ) ) ;
#119 = DIRECTION ( 'NONE',  ( 0.0000000000000000000, 0.0000000000000000000, 1.000000000000000000 ) ) ;
#120 = DIRECTION ( 'NONE',  ( 0.0000000000000000000, 1.000000000000000000, 0.0000000000000000000 ) ) ;
#121 = CARTESIAN_POINT ( 'NONE',  ( 0.0000000000000000000, 0.06250000000000000000, 0.0000000000000000000 ) ) ;
#122 = DIRECTION ( 'NONE',  ( 0.0000000000000000000, -0.0000000000000000000, 1.000000000000000000 ) ) ;
#123 = DIRECTION ( 'NONE',  ( 0.0000000000000000000, 1.000000000000000000, 0.0000000000000000000 ) ) ;
#124 = CARTESIAN_POINT ( 'NONE',  ( 0.0000000000000000000, 0.0000000000000000000, 0.0000000000000000000 ) ) ;
#125 = PLANE ( 'NONE',  #44 ) ;
#126 = DIRECTION ( 'NONE',  ( 0.0000000000000000000, -0.0000000000000000000, 1.000000000000000000 ) ) ;
#127 = DIRECTION ( 'NONE',  ( 0.0000000000000000000, 1.000000000000000000, 0.0000000000000000000 ) ) ;
#128 = CARTESIAN_POINT ( 'NONE',  ( 0.0000000000000000000, 0.06250000000000000000, 0.0000000000000000000 ) ) ;
#129 = PLANE ( 'NONE',  #15 ) ;
#130 = DIRECTION ( 'NONE',  ( 0.0000000000000000000, 0.0000000000000000000, -1.000000000000000000 ) ) ;
#131 = DIRECTION ( 'NONE',  ( -0.0000000000000000000, -1.000000000000000000, -0.0000000000000000000 ) ) ;
#132 = CARTESIAN_POINT ( 'NONE',  ( 0.0000000000000000000, 0.06250000000000000000, 0.0000000000000000000 ) ) ;
#133 = DIRECTION ( 'NONE',  ( 0.0000000000000000000, 0.0000000000000000000, -1.000000000000000000 ) ) ;
#134 = DIRECTION ( 'NONE',  ( -0.0000000000000000000, -1.000000000000000000, -0.0000000000000000000 ) ) ;
#135 = CARTESIAN_POINT ( 'NONE',  ( 0.0000000000000000000, 0.06250000000000000000, 0.0000000000000000000 ) ) ;
#136 =( NAMED_UNIT ( * ) SI_UNIT ( $, .STERADIAN. ) SOLID_ANGLE_UNIT ( ) );
#137 =( NAMED_UNIT ( * ) SI_UNIT ( $, .STERADIAN. ) SOLID_ANGLE_UNIT ( ) );
#138 =( CONVERSION_BASED_UNIT ( 'INCH', #2 ) LENGTH_UNIT ( ) NAMED_UNIT ( #79 ) );
#139 =( CONVERSION_BASED_UNIT ( 'INCH', #51 ) LENGTH_UNIT ( ) NAMED_UNIT ( #60 ) );
#140 =( LENGTH_UNIT ( ) NAMED_UNIT ( * ) SI_UNIT ( $, .METRE. ) );
#141 =( CONVERSION_BASED_UNIT ( 'INCH', #5 ) LENGTH_UNIT ( ) NAMED_UNIT ( #80 ) );
#142 = SURFACE_STYLE_FILL_AREA ( #144 ) ;
#143 = SURFACE_STYLE_USAGE ( .BOTH. , #146 ) ;
#144 = FILL_AREA_STYLE ('',( #145 ) ) ;
#145 = FILL_AREA_STYLE_COLOUR ( '', #26 ) ;
#146 = SURFACE_SIDE_STYLE ('',( #142 ) ) ;
#147 = PRESENTATION_STYLE_ASSIGNMENT (( #143 ) ) ;
#148 = VERTEX_POINT ( 'NONE', #99 ) ;
#149 = VERTEX_POINT ( 'NONE', #98 ) ;
ENDSEC;
END-ISO-10303-21;
